Song name
# A B C D E F G H I J K L M N O P Q R S T U V W X Y Z

Status Quo - I Didnt Mean It tab

I Didn't Mean It
Status Quo
Thirsty Work 1994
sam-lennon-singleton@hotmail.co.uk

Check the vid out on this one...
very funny!


  Intro
E|-----------------------------------8~-|
B|---------8-8-8-8-8-8-8-8-8------------|
G|-9-10-11---9-9-9-9-9-9-9-9-10p9-------|
D|--------------------------------10----|
A|--------------------------------------|
E|--------------------------------------|

E|--------------------------------------|
B|---------8-8-8-8-8-8-8-8-8------------|
G|-9-10-11---9-9-9-9-9-9-9-9-10p9-------|
D|--------------------------------10-10-|
A|--------------------------------------|
E|--------------------------------------|


Tap to rate this tab
 
# A B C D E F G H I J K L M N O P Q R S T U V W X Y Z