Song name
# A B C D E F G H I J K L M N O P Q R S T U V W X Y Z

Status Quo - Tango tab

Help us improve GuitareTab! Take a short survey!
Song:Tango
By:Status Quo
Album:Thirsty Work 1994
gregharper2007@hotmail.co.uk



Intro

    Em                              D
Guitar 1
E|--------------------------------------------------------------------------|
B|--------------------------------------------------------------------------|
G|-------4------------------------------------------------------------------|
D|----5-----5---------------------------7--10--7----------------------------|
A|-7---------------------------------9--------------------------------------|
E|--------------------------------------------------------------------------|

Guitar 2
E|----------------------------------------------------------------------|
B|---------------12--13------12-------------------12--13-----12---------|
G|-----------------------14------12--11~------------------14----11------|
D|------------------------------------------------------------------14~-|
A|----------------------------------------------------------------------|
E|----------------------------------------------------------------------|


   C                                B      Cmaj7   B         Em
Guitar 1
E|---------------------------------------------------------------------|
B|---------------------------------------------------------------------|
G|-------5-------------------------------------------------------------|
D|----5-----5-----------------------4---4--5---5--4--------------------|
A|-7-------------------------------------------------------------------|
E|---------------------------------------------------------------------|

Guitar 2
E|---------------------------------------------------------------------|
B|-------------12--13------12------------------------------------------|
G|---------------------14------12--11--11-12--12-11--------------------|
D|---------------------------------------------------------------------|
A|---------------------------------------------------------------------|
E|---------------------------------------------------------------------|

Em            C      D                   Em
When I look at you,     something isn't true

            C        D                 Em
what am I to do,        where am I to go?

             C       D                  Em
When I find a way,      take the blues away

             C       D                 Em     B
What a funny day,       what af funny world

B                                 Em                          B
And then it all just rolls on and on (and on  and on and on)

B                         Em                     B
it's like an echo echoing on  (and on and on)


    Em                              D
Guitar 1
E|--------------------------------------------------------------------------|
B|--------------------------------------------------------------------------|
G|-------4------------------------------------------------------------------|
D|----5-----5---------------------------7--10--7----------------------------|
A|-7---------------------------------9--------------------------------------|
E|--------------------------------------------------------------------------|

Guitar 2
E|----------------------------------------------------------------------|
B|---------------12--13------12-------------------12--13-----12---------|
G|-----------------------14------12--11~------------------14----11------|
D|------------------------------------------------------------------14~-|
A|----------------------------------------------------------------------|
E|----------------------------------------------------------------------|


   C                                B      Cmaj7   B         Em
Guitar 1
E|---------------------------------------------------------------------|
B|---------------------------------------------------------------------|
G|-------5-------------------------------------------------------------|
D|----5-----5-----------------------4---4--5---5--4--------------------|
A|-7-------------------------------------------------------------------|
E|---------------------------------------------------------------------|

Guitar 2
E|---------------------------------------------------------------------|
B|-------------12--13------12------------------------------------------|
G|---------------------14------12--11--11-12--12-11--------------------|
D|---------------------------------------------------------------------|
A|---------------------------------------------------------------------|
E|---------------------------------------------------------------------|

Em              C      D                   Em
When you look at me,      what is it you see ?

            C        D                  Em
what are you to do,       how are we to know?

             C       D                  Em
If there is a way,      chase the blues away

             C       D                 Em     B
Tell me now today,       sooner if you can

B                              Em                           B
But it still just rolls on and on (and on  and on and on)

B                         Em                     B
just like an echo echoing on  (and on and on)

    Em                              D
Guitar 1
E|--------------------------------------------------------------------------|
B|--------------------------------------------------------------------------|
G|-------4------------------------------------------------------------------|
D|----5-----5---------------------------7--10--7----------------------------|
A|-7---------------------------------9--------------------------------------|
E|--------------------------------------------------------------------------|

Guitar 2
E|----------------------------------------------------------------------|
B|---------------12--13------12-------------------12--13-----12---------|
G|-----------------------14------12--11~------------------14----11------|
D|------------------------------------------------------------------14~-|
A|----------------------------------------------------------------------|
E|----------------------------------------------------------------------|


   C                                B      Cmaj7   B              E  E7
Guitar 1
E|---------------------------------------------------------------------|
B|---------------------------------------------------------------------|
G|-------5-------------------------------------------------------------|
D|----5-----5-----------------------4---4--5---5--4--------------------|
A|-7-------------------------------------------------------------------|
E|---------------------------------------------------------------------|

Guitar 2
E|---------------------------------------------------------------------|
B|-------------12--13------12------------------------------------------|
G|---------------------14------12--11--11-12--12-11--------------------|
D|---------------------------------------------------------------------|
A|---------------------------------------------------------------------|
E|---------------------------------------------------------------------|

Guitar 3
E|---------------------------------------------------------------------|
B|---------------------------------------------------------------------|
G|---------------------------------------------------------------------|
D|---------------------------------------------------------------------|
A|--------------------------------------------------3-0-2---0----------|
E|------------------------------------------------2-------3---2-3-0----|


          Am              Dm                E7               Am     E7
Take me away    take me today   find me a room   find me a view

           Am                 Dm               E7               Am   B
If it's to be   surely you'll see   used to be you   used to be me


             C       D                  Em
If there is a way,      chase the blues away

             C       D                 Em     B
Tell me now today,       sooner if you can

B                              Em                           B
But it still just rolls on and on (and on  and on and on)

B                         Em
just like an echo echoing on  (and on and on)


    Em                              D
Guitar 1
E|--------------------------------------------------------------------------|
B|--------------------------------------------------------------------------|
G|-------4------------------------------------------------------------------|
D|----5-----5---------------------------7--10--7----------------------------|
A|-7---------------------------------9--------------------------------------|
E|--------------------------------------------------------------------------|

Guitar 2
E|----------------------------------------------------------------------|
B|---------------12--13------12-------------------12--13-----12---------|
G|-----------------------14------12--11~------------------14----11------|
D|------------------------------------------------------------------14~-|
A|----------------------------------------------------------------------|
E|----------------------------------------------------------------------|


   C                                B      Cmaj7   B         Em
Guitar 1
E|---------------------------------------------------------------------|
B|---------------------------------------------------------------------|
G|-------5-------------------------------------------------------------|
D|----5-----5-----------------------4---4--5---5--4--------------------|
A|-7-------------------------------------------------------------------|
E|---------------------------------------------------------------------|

Guitar 2
E|---------------------------------------------------------------------|
B|-------------12--13------12------------------------------------------|
G|---------------------14------12--11--11-12--12-11--------------------|
D|---------------------------------------------------------------------|
A|---------------------------------------------------------------------|
E|---------------------------------------------------------------------|


    Em                              D
Guitar 1
E|--------------------------------------------------------------------------|
B|--------------------------------------------------------------------------|
G|-------4------------------------------------------------------------------|
D|----5-----5---------------------------7--10--7----------------------------|
A|-7---------------------------------9--------------------------------------|
E|--------------------------------------------------------------------------|

Guitar 2
E|----------------------------------------------------------------------|
B|---------------12--13------12-------------------12--13-----12---------|
G|-----------------------14------12--11~------------------14----11------|
D|------------------------------------------------------------------14~-|
A|----------------------------------------------------------------------|
E|----------------------------------------------------------------------|

   C                                B      Cmaj7   B              Em
Guitar 1
E|---------------------------------------------------------------------|
B|---------------------------------------------------------------------|
G|-------5-------------------------------------------------------------|
D|----5-----5-----------------------4---4--5---5--4--------------------|
A|-7-------------------------------------------------------------------|
E|---------------------------------------------------------------------|

Guitar 2
E|---------------------------------------------------------------------|
B|-------------12--13------12------------------------------------------|
G|---------------------14------12--11--11-12--12-11--------------------|
D|---------------------------------------------------------------------|
A|---------------------------------------------------------------------|
E|---------------------------------------------------------------------|

Guitar 3
E|---------------------------------------------------------------------|
B|---------------------------------------------------------------------|
G|---------------------------------------------------------------------|
D|---------------------------------------------------------------------|
A|--------------------------------------------------3-0-2---0----------|
E|------------------------------------------------2-------3---2-3-0-3--|
Related for Tango tab