Song name
# A B C D E F G H I J K L M N O P Q R S T U V W X Y Z

Status Quo - We Aint Got Nothing Yet tab

Song:We Aint Got Nothing Yet
By:Status Quo
Album:Released As A Single Only 1967

  
Part 1 (Bass guitar plays the notes with *)
    C                                   Bb
E|-----11p10p8-11p10p8-11p10p8-11p10p8----10p8p6-10p8p6-10p8p6-10p8p6|
B|-------------------------------------------------------------------|
G|-------------------------------------------------------------------|
D|--10----------------------------------8----------------------------|
A|--10----------------------------------8----------------------------|
E|-*8*---------------------------------*6*---------------------------|

Part 2
This is also a bassline...
   C
E|----------------------------|
B|----------------------------|
G|----------------------------|
D|---1-----------1---3-1------|
A|-3---3-1---1-3---3-----3-1--|
E|---------3------------------|


There.





h=Hammer On
p=Pull Off
Tap to rate this tab
# A B C D E F G H I J K L M N O P Q R S T U V W X Y Z