Song name
# A B C D E F G H I J K L M N O P Q R S T U V W X Y Z

Status Quo - Resurrection tab

Resurrection
Status Quo
1+9+8+2 1982 (duh!)
Greg Harper  quorockergreg@hotmail.co.uk

-----------------------------------
h=hammer on
p=pull off
bu=bend up
bd=bend down (release bend)
bu^=break your sting type bend
-----------------------------------

I think somebodys in open G here and I'm not sure who plays the first solo.  I think its Rick.
 Well here's what I got.
In C.

CD(1:41)

E|-------------13-15bu-15bu-15bd-13h15-13-13-13-12-------------------------|
B|-------13-15-------------------------------------13----------------------|
G|-13h14----------------------------------------------12-12----------12-14-|
D|----------------------------------------------------------15-13h14-------|
A|-------------------------------------------------------------------------|
E|-------------------------------------------------------------------------|


E|----------15bu-15bd------------------------------------------|
B|--------------------13-13-13-15bu-15bdp13-15bu^-*15bd*-15-13-|
G|-------------------------------------------------------------|
D|-13h14-15----------------------------------------------------|**=release
A|-------------------------------------------------------------|only a bit
E|-------------------------------------------------------------|


E|-------------------13-12-10------10-10------10-10------10-10-------|
B|-------10-13-12-10----------13bu-------13bu-------13bu-------13-13-|
G|-10h11-------------------------------------------------------------|
D|-------------------------------------------------------------------|
A|-------------------------------------------------------------------|
E|-------------------------------------------------------------------|

I dont know why but this song reminds me of some late Beatles stuff...
I'm working on the rest for my band so I'll put it on when I get time.
Tap to rate this tab
# A B C D E F G H I J K L M N O P Q R S T U V W X Y Z