Song name
# A B C D E F G H I J K L M N O P Q R S T U V W X Y Z

Status Quo - Dont Stop tab

Don't Stop
Status Quo
Don't Stop 1996


Intro:

E|------------------|
B|-5----5-6-6-6p5---|
G|---5------------7-|
D|------------------|
A|------------------|
E|------------------|

E|------------------|
B|-5----5-6-6-6p5---|
G|---5------------7-|
D|------------------|
A|------------------|
E|------------------|

E|------------------|
B|-5----5-6-6-6p5---|
G|---5------------7-|
D|------------------|
A|------------------|
E|------------------|

E|---------------------|
B|-5----5-6-6-6p5------|
G|---5------------7-5~-|
D|---------------------|
A|---------------------|
E|---------------------|


Solo 1:35

E|---------------------------------------------8------------------------11-13-|
B|-------------------------------------------------11-11h13-13-13-11h13-------|
G|-10p8----8~-----------------8-10-10b-rb-10p8--------------------------------|
D|------10----10-8-10\\\---10-------------------------------------------------|
A|----------------------------------------------------------------------------|
E|----------------------------------------------------------------------------|

E|-11-------------11h13-13b-13b-13b-13b-13b-rb--17b-17b-18b-18b-18b-18b-rb\\-|
B|----13~-13~--11------------------------------------------------------------|
G|---------------------------------------------------------------------------|
D|---------------------------------------------------------------------------|
A|---------------------------------------------------------------------------|
E|---------------------------------------------------------------------------|

Tap to rate this tab
 
# A B C D E F G H I J K L M N O P Q R S T U V W X Y Z