Song name
# A B C D E F G H I J K L M N O P Q R S T U V W X Y Z

Status Quo - Thats Alright tab

That's Alright
Status Quo
Ain't Complaining - B Side 1988
Greg Harper    gregharper2007@hotmail.co.uk



Keyboard:
 
E|---------------10--------------10-10------------|
B|--10-12-13-10-----13-12--12h13-------12-10------|
G|-------------------------------------------13---|
D|------------------------------------------------|
A|------------------------------------------------|
E|------------------------------------------------|


E|-8/10-8/10------------------------------|
B|-----------13-12-13-12-10---8-7--13b~~~-|
G|--------------------------9-------------|
D|----------------------------------------|
A|----------------------------------------|
E|----------------------------------------|


Solo

E|---10-12-----10-12-10----------|
B|-12-------12----------13-12-13-|
G|-------------------------------|
D|-------------------------------|
A|-------------------------------|
E|-------------------------------|Its an easy one so you should get it.
                                  If you can't and you want it, E mail me.
Tis a good first tune to learn.


Tap to rate this tab
# A B C D E F G H I J K L M N O P Q R S T U V W X Y Z