Song name
# A B C D E F G H I J K L M N O P Q R S T U V W X Y Z

Status Quo - Tongue Tied tab

Tongue Tied
Status Quo
Fourth Chord 2007



Capo 4th Fret (Bown)
No capo acoustic (Parfitt)
Lead parts have no capo. (Rossi)


C
This is the way I feel
            F
I'm feeling tongue tied
C
This is the way I feel
            F     E7
I'm feeling numb
                Am7  F  
When you walked by, 
            G  E7
I knew that I
              Am    F         G
Would fall in love, love with you



This is the way I feel
It's just like flying

E|----------------9-----|
B|------9-10-12-9---10~-|
G|-9-11-----------------|
D|----------------------|
A|----------------------|
E|----------------------|

This is the way I feel
I'm all undone

E|------9~~\-|
B|-12-9------|
G|-----------|
D|-----------|
A|-----------|
E|-----------|

Time rages on
It's come and gone
Time has a way
Plays with us


F        G             C         E7
I'm just dreaming of a time long ago
F        G               C
I'm just dreaming of the past

E|----------------------------|
B|----------------------------|
G|------9-9------9-9------9-9-|
D|-9h11-----9h11-----9h11-----|
A|----------------------------|
E|----------------------------|

F         G                     C          Am
I've been feeling that there's not long to go

E|---------------|
B|---------------|
G|---------------|
D|-11p9----------|
A|------12-11-12-|
E|---------------|

F         G           C
Why does living go so fast?




When I was running wild,
Was in a tailspin
Wishing I was the child
I'd never been
So many times
so many climbs
Where does it go, oh from here?

I'm just dreaming of a time long ago
I'm just dreaming of the past
I've been feeling that there's not long to go
Why does living go so fast?

Solo:

|F Fm| |C| |F Fm| |C| 

|F Fm| |C Am| |F G| |C|

E|------------------------------------------------------------------|
B|-14-16-17-17b-rb-17b-rb-----------------14-14-16-17-17b-rb-17b-rb-|
G|------------------------13--13-13-14-16---------------------------|
D|------------------------------------------------------------------|
A|------------------------------------------------------------------|
E|------------------------------------------------------------------|

E|-16~-16~-16~-16~-16~\-----------------------------------------|
B|-----------------------14-16-17-17b-rb-17b-rb-----------------|
G|----------------------------------------------13--13-14-16-16-|
D|--------------------------------------------------------------|
A|--------------------------------------------------------------|
E|--------------------------------------------------------------|

E|-----------------------------------------------------------------------|
B|-----------------------------------------------------------------------|
G|-14-14-13-14---14-14-14\13-13-13\11-11-11\9-9-9---------9--------------|
D|------------------------------------------------11-9-11---11-9---------|
A|---------------------------------------------------------------11-9----|
E|--------------------------------------------------------------------12-|

E|-----|
B|-----|
G|-----|
D|-----|
A|-----|
E|-12\-|

I'm just dreaming of a time long ago
I'm just dreaming of the past
I've been feeling that there's not long to go
Why does living go so fast?



Why does living go so fast?
Why does living go so fast?


It is possible that Bown doesnít play the acoustic 
and it is Frame doing it and dubbing the fills.

----------------------------------------------------------------------------
Chords:

Bown/Rossi

C(E)       F(A)       E7(G#7)
    EADGBE     EADGBE        EADGBE
    x32010     133211        020100


Am7(C#m7)         G(B)        Am(C#m)
         EADGBE       EADGBE         EADGBE
         x02010       320003         x02210

Fm(Am) 
      EADGBE
      133111
----------------------------------------------------------------------------
Rick

C(E)       F(A)       E7(G#7)
    EADGBE     EADGBE        EADGBE
    022100     577655        46454x


Am7(C#m7)         G(B)        Am(C#m)
         EADGBE       EADGBE         EA D GBE
         9x999x       x2444x         91111999


Am(Fm) 
      EADGBE
      577555 
Tap to rate this tab
# A B C D E F G H I J K L M N O P Q R S T U V W X Y Z