Song name
# A B C D E F G H I J K L M N O P Q R S T U V W X Y Z

Status Quo - Stay The Night tab

Stay The Night
Status Quo
Back To Back 1983


  Gtr.2
E|-5-5-5--6--3-3-3-4p3-4p3---5-5-5--6--3-3-3-|
B|-6-6-6--6--4-4-4-4---4-----6-6-6--6--4-4-4-|
G|-5-5-5--5--3-3-3-----------5-5-5--5--3-3-3-|
D|-------------------------------------------|
A|-------------------------------------------|
E|-------------------------------------------|X4

   Gtr.1 (Fill Between Riff)
E|-------------|
B|-------------|
G|-----3-3-----|
D|-3h5-----5p3-|
A|-------------|
E|-------------|

Gtr.1&3
E|-----------|
B|-----------|
G|-----------|
D|-3-3-3-3-3-|
A|-3-3-3-3-3-|
E|-1-1-1-1-1-|

             Dm   C               F
Has anybody here seen my way to heaven
             Dm    C                 F
Can anybody care enough for them to tell
                 Dm       C           F
It's taken me forever but finally you came
                 Dm            C        F
I had to look no further than any other man

etc
Tap to rate this tab
 
# A B C D E F G H I J K L M N O P Q R S T U V W X Y Z