Song name
# A B C D E F G H I J K L M N O P Q R S T U V W X Y Z

Status Quo - Its Christmas Time tab

It's Christmas Time
Status Quo
2008

The new single for Christmas '08.
There are two guitars here but this is the main part...


   G          G/F#             Em           Em/D
E|----------------------------------------------------------|
B|----12-15------------12-15------12-15--------------12-15--|
G|-12---------12-11-12---------12--------11/12\11/12--------|
D|----------------------------------------------------------|
A|----------------------------------------------------------|
E|----------------------------------------------------------|

   C                              D7
E|--------------------------------------------------------|
B|-13-12-----------------------12-13-13-12----------10----|
G|-------14-12-14-16-----12-14-------------14-12-11-------|
D|-------------------14--------------------------------12-|
A|--------------------------------------------------------|
E|--------------------------------------------------------|


More to come...
Tap to rate this tab
 
# A B C D E F G H I J K L M N O P Q R S T U V W X Y Z