Song name
# A B C D E F G H I J K L M N O P Q R S T U V W X Y Z

Status Quo - Ciao Ciao tab

Ciao Ciao
Status Quo
Thirsty Work 1994


   D       A    C       G     
E|------------------------------|
B|------------------------------|
G|------------------------------|
D|-0-0--------------------------|
A|-----4-2-0--0-3-3-2-0---2-3-4-|
E|----------------------3-------|


   D       A    C       G     
E|------------------------------|
B|------------------------------|
G|------------------------------|
D|-0-0--------------------------|
A|-----4-2-0--0-3-3-2-0---2-3-4-|
E|----------------------3-------|


   D       A    C       G     
E|------------------------------|
B|------------------------------|
G|------------------------------|
D|-0-0--------------------------|
A|-----4-2-0--0-3-3-2-0---2-3-4-|
E|----------------------3-------|


           D  A D
E|----------------|
B|----------------|
G|----------------|
D|-5-5- ----------|
A|-----4-7-5----5-|
E|------------5---|
Tap to rate this tab
# A B C D E F G H I J K L M N O P Q R S T U V W X Y Z