Song name
# A B C D E F G H I J K L M N O P Q R S T U V W X Y Z

Status Quo - Cream Of The Crop tab

Cream of the Crop
Status Quo
Ain't Complaining 1988

Keyboard & Guitar intro @ 0:20


   F               C/E  Bb/D     F               C/E  Bb/D
E|-8-----8-----8-|-8----10-----|-8-----8-----8-|-8----10-----|
B|--10----10-----|--8-----11---|--10----10-----|--8-----11---|
G|----10----10---|---9------10-|----10----10---|---9------10-|
D|---------------|-------------|---------------|-------------|
A|---------------|-------------|---------------|-------------|
E|---------------|-------------|---------------|-------------|


   F               C/E  Bb/D     F               C/E  Bb/D
E|-8-----8-----8-|-8----10-----|-8-----8-----8-|-8----10-----|
B|--10----10-----|--8-----11---|--10----10-----|--8-----11---|
G|----10----10---|---9------10-|----10----10---|---9------10-|
D|---------------|-------------|---------------|-------------|
A|---------------|-------------|---------------|-------------|
E|---------------|-------------|---------------|-------------|
Tap to rate this tab
 
# A B C D E F G H I J K L M N O P Q R S T U V W X Y Z