Song name
# A B C D E F G H I J K L M N O P Q R S T U V W X Y Z

Status Quo - Wanderer tab

Help us improve GuitareTab! Take a short survey!
                                 The Wanderer                                   


                                                                      Status Quo
Lead guitar



     |--3--|               |---3--|          |----3---|        |---3--|   
     E  E  E   E.  S Q     E   E  E     Q    E  E     E  Q     E   E  E   
E||----------------------------------|-----------------------------------|
B||----------------------------------|--9----9--Lbr----------------------|
G||----------------------------------|---------------11--9---------------|
D||--------9--11---9-9----11---L--9--|------------------------11---L--9--|
A||----------------------------------|-----------------------------------|
E||----------------------------------|-----------------------------------|


  |--3--|               |---3--|          |----3---|       |--3--|   
  E  E  E   E.  S Q     E   E  E     Q    E  E     E  Q    E  E  E   
----------------------------------|------------------------9--L--9--|
----------------------------------|--9----9--Lbr--------------------|
----------------------------------|---------------11--9-------------|
--------9--11---9-9----11---L--9--|---------------------------------|
----------------------------------|---------------------------------|
----------------------------------|---------------------------------|


            |---3---|   |---3---|  |--3--|                       |---3---|   
   Q        E   E   E   E   E   E  E  E  E     Q     Q     Q     E   E   E   
-----------------------------------9--L--9--|--9----------------------------|
--12pbr----12---L--12--12---L--10-----------|-------12----10----------------|
--------------------------------------------|-------------------11---L--12--|
--------------------------------------------|-------------------------------|
--------------------------------------------|-------------------------------|
--------------------------------------------|-------------------------------|


                         |---3---|                 |---3--|             
  E.   S  Q     E.    S  E   E   E      S   E   S  E   E  E   H         
------12-12-------------10---L------|----------12-12---L---------------|
--9---------------------------------|---------------------9------------|
---------------10h---11---------12--|--10s-11----------------11--------|
------------------------------------|----------------------------------|
------------------------------------|----------------------------------|
------------------------------------|----------------------------------|


   |----3---|   |----3---|        |---3---|                                 
   E    E   E   E    E   E   Q    E   E   E     Q.       E   Q     E    E   
---------------10h---------------------------|--9~-------------------------|
--------------------12--12--12-------12--12--|----------12--10-------------|
-----------11--------------------------------|--------------------11br--9--|
--12s--13------------------------------------|-----------------------------|
---------------------------------------------|-----------------------------|
---------------------------------------------|-----------------------------|


  |---3---|  |---3---|  |---3---|  |---3---|   
  E    E  E  E    E  E  E    E  E  E    E  E   
----------0----------0----------0----------0--|
--9br--L--9--9br--L--9--9br--L--9--9br--L--9--|
----------------------------------------------|
----------------------------------------------|
----------------------------------------------|
----------------------------------------------|


  |----3---|  |----3---|             
  E    E   E  E    E   E  H          
--9br--L---------------------------||
----------12--9br--L---------------||
----------------------11--9--------||
-----------------------------------||
-----------------------------------||
-----------------------------------||




Duration Legend
---------------
W - whole
H - half
Q - quarter
E - 8th
S - 16th
T - 32nd
X - 64th
. - note dotted
|-n-|  - n-tuplets


Tablature Legend
----------------
L - tied note
x - dead note
g - grace note
(n) - ghost note
> - accentuded note
NH - natural harmonic
AH - artificial harmonic
TH - tapped harmonic
SH - semi harmonic
PH - pitch harmonic
h - hammer on
p - pull off
b - bend
br - bendRelease
pb - preBend
pbr - preBendRelease
brb - bendReleaseBend
\n/ - tremolo bar dip
\n - tremolo bar dive
-/n - tremolo bar Release up
/n\ - tremolo bar inverted dip
/n - tremolo bar return
-\n - tremolo bar Release down
S - shift slide
s - legato slide
/ -  slide into from below or out of upwards
\ -  slide into from above or out of downwards
~ - vibrato
W - wide vibrato
tr - trill
TP - tremolo picking
T - tapping
S - slap
P - pop
< - fade in
^ - brush up
v - brush down
Related for Wanderer tab