Song name
# A B C D E F G H I J K L M N O P Q R S T U V W X Y Z

Status Quo - Rail Road tab

                             Rail Road                                     


                                                                      Status Quo
GUITAR



                    INTRO                    
     |--3--|  |--3--|     |--3--|  |--3--|   
     E  E  E  E  E  E     E  E  E  E  E  E   
E||-----------------------------------------|
B||-----------------------------------------|
G||-----------------------7-----7--7--5-----|
D||--7-----7--7--5-----------------------7--|
A||-----------------7-----------------------|
E||-----------------------------------------|


  |--3--|  |--3--|  |--3--|  |--3--|     |--3--|  |--3--|  |--3--|  |--3--|   
  E  E  E  E  E  E  E  E  E  E  E  E     E  E  E  E  E  E  E  E  E  E  E  E   
--------------------------------------|--------------------------------------|
--------------------------------------|--------------------------------------|
--------------------------------------|--------------------7-----7--7--5-----|
--7-----7--7--5--------------5--------|--7-----7--7--5--------------------7--|
-----------------7--5--6--7--------7--|-----------------7--------------------|
--------------------------------------|--------------------------------------|


  |--3--|  |--3--|  |--3--|  |--3--|   
  E  E  E  E  E  E  E  E  E  E  E  E   
--------------------------------------|
--------------------------------------|
--------------------------------------|
--7-----7--7--5--------------5--------|
-----------------7--5--6--7--------7--|
--------------------------------------|


    Chorus                                   
    |----3----|  |--3--|  |--3--|  |--3--|   
    E      E  E  E  E  E  E  E  E  E  E  E   
|-------------------------------------------|
|-------------------------------------------|
|*------------------------7-----7--7--5-----|
|*--7---------7--7--5--------------------7--|
|----------------------7--------------------|
|-------------------------------------------|


  |--3--|  |--3--|  |--3--|  |--3--|     |--3--|  |--3--|  |--3--|  |--3--|   
  E  E  E  E  E  E  E  E  E  E  E  E     E  E  E  E  E  E  E  E  E  E  E  E   
--------------------------------------|--------------------------------------|
--------------------------------------|--------------------------------------|
--------------------------------------|--------------------7-----7--7--5-----|
--7-----7--7--5--------------5--------|--7-----7--7--5--------------------7--|
-----------------7--5--6--7--------7--|-----------------7--------------------|
--------------------------------------|--------------------------------------|


  |--3--|  |--3--|  |--3--|  |--3--|     |--3--|  |--3--|  |--3--|  |--3--|   
  E  E  E  E  E  E  E  E  E  E  E  E     E  E  E  E  E  E  E  E  E  E  E  E   
--------------------------------------|--------------------------------------|
--------------------------------------|--------------------------------------|
--------------------------------------|--------------------7-----7--7--5-----|
--7-----7--7--5--------------5--------|--7-----7--7--5--------------------7--|
-----------------7--5--6--7--------7--|-----------------7--------------------|
--------------------------------------|--------------------------------------|


  |--3--|  |--3--|  |--3--|  |--3--|     |--3--|  |--3--|  |--3--|  |--3--|   
  E  E  E  E  E  E  E  E  E  E  E  E     E  E  E  E  E  E  E  E  E  E  E  E   
--------------------------------------|--------------------------------------|
--------------------------------------|--------------------------------------|
--------------------------------------|--------------------7-----7--7--5-----|
--7-----7--7--5--------------5--------|--7-----7--7--5--------------------7--|
-----------------7--5--6--7--------7--|-----------------7--------------------|
--------------------------------------|--------------------------------------|


  |--3--|  |--3--|  |--3--|  |--3--|     
  E  E  E  E  E  E  E  E  E  E  E  E     
---------------------------------------||
---------------------------------------||
--------------------------------------*||
--7-----7--7--5--------------5--------*||
-----------------7--5--6--7--------7---||
---------------------------------------||


  Verses                                   
  |----3----|  |--3--|  |--3--|  |--3--|   
  E      E  E  E  E  E  E  E  E  E  E  E   
------------------------------------------|
------------------------------------------|
------------------------------------------|
--2---------2--4-----4--2-----2--4-----4--|
--0---------0--0-----0--0-----0--0-----0--|
------------------------------------------|


  |--3--|  |--3--|  |--3--|  |--3--|     |--3--|  |--3--|  |--3--|  |--3--|   
  E  E  E  E  E  E  E  E  E  E  E  E     E  E  E  E  E  E  E  E  E  E  E  E   
--------------------------------------|--------------------------------------|
--------------------------------------|--------------------------------------|
--------------------------------------|--------------------------------------|
--2-----2--4-----4--2-----2--4-----4--|--7-----7--9-----9--7-----7--9-----9--|
--0-----0--0-----0--0-----0--0-----0--|--5-----5--5-----5--5-----5--5-----5--|
--------------------------------------|--------------------------------------|


  |--3--|  |--3--|  |--3--|  |--3--|     |--3--|  |--3--|  |--3--|  |--3--|   
  E  E  E  E  E  E  E  E  E  E  E  E     E  E  E  E  E  E  E  E  E  E  E  E   
--------------------------------------|--------------------------------------|
--------------------------------------|--------------------------------------|
--------------------------------------|--------------------------------------|
--7-----7--9-----9--7-----7--9-----9--|--2-----2--4-----4--2-----2--4-----4--|
--5-----5--5-----5--5-----5--5-----5--|--0-----0--0-----0--0-----0--0-----0--|
--------------------------------------|--------------------------------------|


  |--3--|  |--3--|  |--3--|  |--3--|     |--3--|  |--3--|  |--3--|  |--3--|   
  E  E  E  E  E  E  E  E  E  E  E  E     E  E  E  E  E  E  E  E  E  E  E  E   
--------------------------------------|--------------------------------------|
--------------------------------------|--------------------------------------|
--------------------------------------|--------------------------------------|
--2-----2--4-----4--2-----2--4-----4--|--4-----4--4-----4--4-----4--4-----4--|
--0-----0--0-----0--0-----0--0-----0--|--2-----2--2-----2--2-----2--2-----2--|
--------------------------------------|--------------------------------------|


  |--3--|   |---3--|  |--3--|   |---3--|   
  E  E  E   E  E   E  E  E  E   E  E   E   
------------------------------------------|
------------------------------------------|
------------------------------------------|
--9-----9--11-----11--9-----9--11-----11--|
--7-----7---7------7--7-----7---7------7--|
------------------------------------------|


  |--3--|  |--3--|  |--3--|  |--3--|     |--3--|  |--3--|  |--3--|  |--3--|   
  E  E  E  E  E  E  E  E  E  E  E  E     E  E  E  E  E  E  E  E  E  E  E  E   
--------------------------------------|--------------------------------------|
--------------------------------------|--------------------------------------|
--------------------------------------|--------------------------------------|
--2-----2--4-----4--2-----2--4-----4--|--2-----2--4-----4--2-----2--4-----4--|
--0-----0--0-----0--0-----0--0-----0--|--0-----0--0-----0--0-----0--0-----0--|
--------------------------------------|--------------------------------------|


  |--3--|  |--3--|  |--3--|  |--3--|     |--3--|  |--3--|  |--3--|  |--3--|   
  E  E  E  E  E  E  E  E  E  E  E  E     E  E  E  E  E  E  E  E  E  E  E  E   
--------------------------------------|--------------------------------------|
--------------------------------------|--------------------------------------|
--------------------------------------|--------------------------------------|
--7-----7--9-----9--7-----7--9-----9--|--7-----7--9-----9--7-----7--9-----9--|
--5-----5--5-----5--5-----5--5-----5--|--5-----5--5-----5--5-----5--5-----5--|
--------------------------------------|--------------------------------------|


  |--3--|  |--3--|  |--3--|  |--3--|   
  E  E  E  E  E  E  E  E  E  E  E  E   
--------------------------------------|
--------------------------------------|
--------------------------------------|
--2-----2--4-----4--2-----2--4-----4--|
--0-----0--0-----0--0-----0--0-----0--|
--------------------------------------|


  |--3--|   |---3--|  |--3--|   |---3--|   
  E  E  E   E  E   E  E  E  E   E  E   E   
------------------------------------------|
------------------------------------------|
------------------------------------------|
--9-----9--11-----11--9-----9--11-----11--|
--7-----7---7------7--7-----7---7------7--|
------------------------------------------|


  |--3--|  |--3--|  |--3--|  |--3--|     |--3--|  |--3--|  |--3--|  |--3--|   
  E  E  E  E  E  E  E  E  E  E  E  E     E  E  E  E  E  E  E  E  E  E  E  E   
--------------------------------------|--------------------------------------|
--------------------------------------|--------------------------------------|
--------------------------------------|--------------------------------------|
--2-----2--4-----4--2-----2--4-----4--|--9--9--9--9--9--9--9--9--9--9--9--9--|
--0-----0--0-----0--0-----0--0-----0--|--7--7--7--7--7--7--7--7--7--7--7--7--|
--------------------------------------|--------------------------------------|


  Chorus                                   
  |----3----|  |--3--|  |--3--|  |--3--|   
  E      E  E  E  E  E  E  E  E  E  E  E   
------------------------------------------|
------------------------------------------|
------------------------7-----7--7--5-----|
--7---------7--7--5--------------------7--|
---------------------7--------------------|
------------------------------------------|


  |--3--|  |--3--|  |--3--|  |--3--|     |--3--|  |--3--|  |--3--|  |--3--|   
  E  E  E  E  E  E  E  E  E  E  E  E     E  E  E  E  E  E  E  E  E  E  E  E   
--------------------------------------|--------------------------------------|
--------------------------------------|--------------------------------------|
--------------------------------------|--------------------7-----7--7--5-----|
--7-----7--7--5--------------5--------|--7-----7--7--5--------------------7--|
-----------------7--5--6--7--------7--|-----------------7--------------------|
--------------------------------------|--------------------------------------|


  |--3--|  |--3--|  |--3--|  |--3--|     |--3--|  |--3--|  |--3--|  |--3--|   
  E  E  E  E  E  E  E  E  E  E  E  E     E  E  E  E  E  E  E  E  E  E  E  E   
--------------------------------------|--------------------------------------|
--------------------------------------|--------------------------------------|
--------------------------------------|--------------------7-----7--7--5-----|
--7-----7--7--5--------------5--------|--7-----7--7--5--------------------7--|
-----------------7--5--6--7--------7--|-----------------7--------------------|
--------------------------------------|--------------------------------------|


  |--3--|  |--3--|  |--3--|  |--3--|     |--3--|  |--3--|  |--3--|  |--3--|   
  E  E  E  E  E  E  E  E  E  E  E  E     E  E  E  E  E  E  E  E  E  E  E  E   
--------------------------------------|--------------------------------------|
--------------------------------------|--------------------------------------|
--------------------------------------|--------------------7-----7--7--5-----|
--7-----7--7--5--------------5--------|--7-----7--7--5--------------------7--|
-----------------7--5--6--7--------7--|-----------------7--------------------|
--------------------------------------|--------------------------------------|


  |--3--|  |--3--|  |--3--|  |--3--|   
  E  E  E  E  E  E  E  E  E  E  E  E   
--------------------------------------|
--------------------------------------|
--------------------------------------|
--7-----7--7--5--------------5--------|
-----------------7--5--6--7--------7--|
--------------------------------------|


  Verses                                   
  |----3----|  |--3--|  |--3--|  |--3--|   
  E      E  E  E  E  E  E  E  E  E  E  E   
------------------------------------------|
------------------------------------------|
------------------------------------------|
--2---------2--4-----4--2-----2--4-----4--|
--0---------0--0-----0--0-----0--0-----0--|
------------------------------------------|


  |--3--|  |--3--|  |--3--|  |--3--|     |--3--|  |--3--|  |--3--|  |--3--|   
  E  E  E  E  E  E  E  E  E  E  E  E     E  E  E  E  E  E  E  E  E  E  E  E   
--------------------------------------|--------------------------------------|
--------------------------------------|--------------------------------------|
--------------------------------------|--------------------------------------|
--2-----2--4-----4--2-----2--4-----4--|--7-----7--9-----9--7-----7--9-----9--|
--0-----0--0-----0--0-----0--0-----0--|--5-----5--5-----5--5-----5--5-----5--|
--------------------------------------|--------------------------------------|


  |--3--|  |--3--|  |--3--|  |--3--|     |--3--|  |--3--|  |--3--|  |--3--|   
  E  E  E  E  E  E  E  E  E  E  E  E     E  E  E  E  E  E  E  E  E  E  E  E   
--------------------------------------|--------------------------------------|
--------------------------------------|--------------------------------------|
--------------------------------------|--------------------------------------|
--7-----7--9-----9--7-----7--9-----9--|--2-----2--4-----4--2-----2--4-----4--|
--5-----5--5-----5--5-----5--5-----5--|--0-----0--0-----0--0-----0--0-----0--|
--------------------------------------|--------------------------------------|


  |--3--|  |--3--|  |--3--|  |--3--|     |--3--|  |--3--|  |--3--|  |--3--|   
  E  E  E  E  E  E  E  E  E  E  E  E     E  E  E  E  E  E  E  E  E  E  E  E   
--------------------------------------|--------------------------------------|
--------------------------------------|--------------------------------------|
--------------------------------------|--------------------------------------|
--2-----2--4-----4--2-----2--4-----4--|--4-----4--4-----4--4-----4--4-----4--|
--0-----0--0-----0--0-----0--0-----0--|--2-----2--2-----2--2-----2--2-----2--|
--------------------------------------|--------------------------------------|


  |--3--|   |---3--|  |--3--|   |---3--|   
  E  E  E   E  E   E  E  E  E   E  E   E   
------------------------------------------|
------------------------------------------|
------------------------------------------|
--9-----9--11-----11--9-----9--11-----11--|
--7-----7---7------7--7-----7---7------7--|
------------------------------------------|


  |--3--|  |--3--|  |--3--|  |--3--|     |--3--|  |--3--|  |--3--|  |--3--|   
  E  E  E  E  E  E  E  E  E  E  E  E     E  E  E  E  E  E  E  E  E  E  E  E   
--------------------------------------|--------------------------------------|
--------------------------------------|--------------------------------------|
--------------------------------------|--------------------------------------|
--2-----2--4-----4--2-----2--4-----4--|--2-----2--4-----4--2-----2--4-----4--|
--0-----0--0-----0--0-----0--0-----0--|--0-----0--0-----0--0-----0--0-----0--|
--------------------------------------|--------------------------------------|


  |--3--|  |--3--|  |--3--|  |--3--|     |--3--|  |--3--|  |--3--|  |--3--|   
  E  E  E  E  E  E  E  E  E  E  E  E     E  E  E  E  E  E  E  E  E  E  E  E   
--------------------------------------|--------------------------------------|
--------------------------------------|--------------------------------------|
--------------------------------------|--------------------------------------|
--7-----7--9-----9--7-----7--9-----9--|--7-----7--9-----9--7-----7--9-----9--|
--5-----5--5-----5--5-----5--5-----5--|--5-----5--5-----5--5-----5--5-----5--|
--------------------------------------|--------------------------------------|


  |--3--|  |--3--|  |--3--|  |--3--|   
  E  E  E  E  E  E  E  E  E  E  E  E   
--------------------------------------|
--------------------------------------|
--------------------------------------|
--2-----2--4-----4--2-----2--4-----4--|
--0-----0--0-----0--0-----0--0-----0--|
--------------------------------------|


  |--3--|   |---3--|  |--3--|   |---3--|   
  E  E  E   E  E   E  E  E  E   E  E   E   
------------------------------------------|
------------------------------------------|
------------------------------------------|
--9-----9--11-----11--9-----9--11-----11--|
--7-----7---7------7--7-----7---7------7--|
------------------------------------------|


  |--3--|  |--3--|  |--3--|  |--3--|     |--3--|  |--3--|  |--3--|  |--3--|   
  E  E  E  E  E  E  E  E  E  E  E  E     E  E  E  E  E  E  E  E  E  E  E  E   
--------------------------------------|--------------------------------------|
--------------------------------------|--------------------------------------|
--------------------------------------|--------------------------------------|
--2-----2--4-----4--2-----2--4-----4--|--9--9--9--9--9--9--9--9--9--9--9--9--|
--0-----0--0-----0--0-----0--0-----0--|--7--7--7--7--7--7--7--7--7--7--7--7--|
--------------------------------------|--------------------------------------|


  Chorus                                   
  |----3----|  |--3--|  |--3--|  |--3--|   
  E      E  E  E  E  E  E  E  E  E  E  E   
------------------------------------------|
------------------------------------------|
------------------------7-----7--7--5-----|
--7---------7--7--5--------------------7--|
---------------------7--------------------|
------------------------------------------|


  |--3--|  |--3--|  |--3--|  |--3--|     |--3--|  |--3--|  |--3--|  |--3--|   
  E  E  E  E  E  E  E  E  E  E  E  E     E  E  E  E  E  E  E  E  E  E  E  E   
--------------------------------------|--------------------------------------|
--------------------------------------|--------------------------------------|
--------------------------------------|--------------------7-----7--7--5-----|
--7-----7--7--5--------------5--------|--7-----7--7--5--------------------7--|
-----------------7--5--6--7--------7--|-----------------7--------------------|
--------------------------------------|--------------------------------------|


  |--3--|  |--3--|  |--3--|  |--3--|     |--3--|  |--3--|  |--3--|  |--3--|   
  E  E  E  E  E  E  E  E  E  E  E  E     E  E  E  E  E  E  E  E  E  E  E  E   
--------------------------------------|--------------------------------------|
--------------------------------------|--------------------------------------|
--------------------------------------|--------------------7-----7--7--5-----|
--7-----7--7--5--------------5--------|--7-----7--7--5--------------------7--|
-----------------7--5--6--7--------7--|-----------------7--------------------|
--------------------------------------|--------------------------------------|


  |--3--|  |--3--|  |--3--|  |--3--|     |--3--|  |--3--|  |--3--|  |--3--|   
  E  E  E  E  E  E  E  E  E  E  E  E     E  E  E  E  E  E  E  E  E  E  E  E   
--------------------------------------|--------------------------------------|
--------------------------------------|--------------------------------------|
--------------------------------------|--------------------7-----7--7--5-----|
--7-----7--7--5--------------5--------|--7-----7--7--5--------------------7--|
-----------------7--5--6--7--------7--|-----------------7--------------------|
--------------------------------------|--------------------------------------|


  |--3--|  |--3--|  |--3--|  |--3--|                        
  E  E  E  E  E  E  E  E  E  E  E  E     W                  
--------------------------------------|--0----------------||
--------------------------------------|--2----------------||
--------------------------------------|--2----------------||
--7-----7--7--5--------------5--------|--2----------------||
-----------------7--5--6--7--------7--|--0----------------||
--------------------------------------|-------------------||




Duration Legend
---------------
W - whole
H - half
Q - quarter
E - 8th
S - 16th
T - 32nd
X - 64th
. - note dotted
|-n-|  - n-tuplets


Tablature Legend
----------------
L - tied note
x - dead note
g - grace note
(n) - ghost note
> - accentuded note
NH - natural harmonic
AH - artificial harmonic
TH - tapped harmonic
SH - semi harmonic
PH - pitch harmonic
h - hammer on
p - pull off
b - bend
br - bendRelease
pb - preBend
pbr - preBendRelease
brb - bendReleaseBend
\n/ - tremolo bar dip
\n - tremolo bar dive
-/n - tremolo bar Release up
/n\ - tremolo bar inverted dip
/n - tremolo bar return
-\n - tremolo bar Release down
S - shift slide
s - legato slide
/ -  slide into from below or out of upwards
\ -  slide into from above or out of downwards
~ - vibrato
W - wide vibrato
tr - trill
TP - tremolo picking
T - tapping
S - slap
P - pop
< - fade in
^ - brush up
v - brush down
Tap to rate this tab
 
# A B C D E F G H I J K L M N O P Q R S T U V W X Y Z