Song name
# A B C D E F G H I J K L M N O P Q R S T U V W X Y Z

Status Quo - In My Chair tab

                    BAND=STATUS QUO
                    SONG=IN MY CHAIR
                    ALBUM=PICTURES.


HI, Im gunna try my best to tab the intro to this song wich is also the mane riff
to the song , i hope to soon tab the whole song but not today


HINT = IF U know your scales this song works around the blues scale in E ,
       if you wana improvise a solo use the bluse scale like on the 12 fret
       or summink (i dunno if this i wright if it aint plz coment onthis
       tab ).


    ROSSI - Gtr.1.

 e---------------------------------0------------------------------------|
 B----------------------------------------------------------------------|
 G----------------------------------------------------------------------|
 D------------------0---------------------------------------------------|
 A----------0--1--2---2--1--0-------------------------------------------|
 E----0---3--------------------3----------------------------------------|

   PARFITT -Gtr.2.(and verses)

 e---------------------------------------------------------------------------|
 B---------------------------------------------------------------------------|
 G---------------------------------------------------------------------------|
 D----------------------2X15-------------------------------------------------|
 A------2--X15----------0X15-------------------------------------------------|
 E------0--X15---------------------------------------------------------------|


for the rest of the song the verses use the PARFITT section above while ROSSI is sigin 
for the chorus use the chords bellow ;

  chorus

  e---2---          ---4---                                  --------|
  B---2---          ---4---                                  ---2----|
  G---4---    THEN  ---6---  THE ONLY STRIKE THIS CHORD ONCE ---2----|
  D---4---          ---6---                                  ---2----|
  A---2---          ---4---                                  --------|
  E-------          -------                                  --------|


 THAT IS ALL HOPE IT WAS HANDY PLEASE ADD ME AS A FRIEND A BIT OF A LONER LOL BUT MOST 
ALL COMMENT ON MA TAB IF IT WERE GOOD OR BAD . THANKS .
Tap to rate this tab
 
# A B C D E F G H I J K L M N O P Q R S T U V W X Y Z