Song name
# A B C D E F G H I J K L M N O P Q R S T U V W X Y Z

Status Quo - Unspoken Words chords

Highlighted       Show chord diagrams
Unspoken Words - STATUS QUO

Rossi/Young

Transcription : Philippe Renouf (France)
 
Intro
D - D7 - G - Gm, D, A7

Solo
D, D7, G, F7dim, D, B7, E7, A7, A7/G, A7/F#, A7/E


             D              D7
 If I could only share with you
 
G                    F7dim
 Once more the fruits  of yesterday
 
D                B7
 Could I forget    unspoken words?
 
E7                             A7, A7/G, A7/F#, A7/E
 The change in colours of your way
 
             D               D7 
I can still see you standing there

G                  F7dim
 Clutching my hand    and begging not to go

D                     B7
 Don't hide the tears,  I'm crying too

E7                           A7, A7/G, A7/F#, A7/E
 It doesn't matter too much, no
 

               D                D7
I'll always be with you by your side

G                  F7dim
 Watching over you,  feeling every pain
 
D                    B7 
 Hold your head high,  think of me there
 
E7                           A7, A7/G, A7/F#, A7/E 
 I'll still be with you once again
 
               D                D7 
I'll always be with you by your side

G                  F7dim
 Watching over you,  feeling every pain
 
D                    B7  
 Hold your head high, think of me there

E7             A7              D    A7
 I'll still be with you once again
 
 Solo Fin
 D, D7, G, F7dim, D, B7, E7, A7, A7/G, A7/F#, A7/E.....
 
 
 
 Accords - Chords :

Intro
   D    D7    G     Gm    A7
|--2--|--2--|--3--|--3--|--0--|           
|--3--|--1--|--3--|--3--|--2--|           
|--2--|--2--|--4--|--3--|--0--|           
|--0--|--0--|--5--|--5--|--2--|           
|-----|-----|-----|-----|--0--|           
|-----|-----|-----|-----|-----| 

Song

 F7dim  B7    E7    A7/G A7/F#  A7/E
|--4--|--2--|--0--|--0--|--0--|--0--| 
|--3--|--0--|--0--|--2--|--2--|--2--| 
|--4--|--2--|--1--|--0--|--0--|--0--| 
|--3--|--1--|--0--|--2--|--2--|--2--| 
|-----|--2--|--2--|-----|-----|-----| 
|-----|-----|--0--|--3--|--2--|--0--| 
Tap to rate this tab
 
# A B C D E F G H I J K L M N O P Q R S T U V W X Y Z