Song name
# A B C D E F G H I J K L M N O P Q R S T U V W X Y Z

Status Quo - Whatever You Want tab

                                                       Whatever you want 
							       By
							  Status Quo
                                                         

		Please note that this is only what Rick parfitt plays on the song 
		And that this is in Drop D tuning so from low to high D A D G B E
		Also this is my own work with the great help of Lick Libary's Rick
		Parfit's Rhythem Method. I highly recommend buying this DVD.
		In the near future I hope to tab out more of the DVD and i recommend
		using the track to get the timings.... any additions please email:
		easty94@googlemail.com thanks guys.... enjoy.

Tabbed by Clint

Intro
e|--------3---3-----3-----------------3-----------2-----2-----3-----2-----|
B|------1-------1-----1--0--0h1p0-----0-----------=3-----3-----3-----3----|
G|----0-----------0-----0-----------0-----0---------2-----2-----2-----2---|
D|--0---------------------------------------0-----------------------------|
A|--------------------------------------------0---------------------------|
D|----------------------------------------------0-------------------------|



e|--------3---3-----3-----------------3-----------2-----2-----3-----2-----|
B|------1-------1-----1--0--0h1p0-----0------------3-----3-----3-----3----|
G|----0-----------0-----0-----------0-----0----------2-----2-----2-----2--|
D|--0---------------------------------------0-----------------------------|
A|--------------------------------------------0---------------------------|
D|----------------------------------------------0-------------------------|



e|----------------------------------------2-----------5-| AND LET IT HANG 
B|----3-----3------3-----3--------------3-----------6---|AND ATMOSPHERE IN 
G|------0-----0------0-----0----------2-----------5-----|YOUR 
D|------------------------------------------------------|HALL,BEDROOM,LOUNGE
A|--3-----3------2-----2--------------------------------|BUILD
D|---------------------------3-2p0----------------------|


THEN A KIND OF SECONDARY INTRO
e|------------------------------| HERE USE YOUR FINGER TO ADD THE VIBRATO 
B|------------------------------| WITH A SLIGHT BOBBING BEND
G|--------------------------5~--|
D|------------------------------|
A|------------------------------|
D|--0-0---0-0---0-0---0-0-------|



e|------------------------------|
B|------------------------------|
G|--------------------------5~--|
D|------------------------------|
A|------------------------------|
D|--0-0---0-0---0-0---0-0-------|



e|------------------------------| 
B|------------------------------|
G|--------------------------5~--|
D|------------------------------|
A|------------------------------|
D|--0-0---0-0---0-0---0-0-------|



e|------------------------------|
B|------------------------------|
G|--------------------------5~--|
D|------------------------------|
A|------------------------------|
D|--0-0---0-0---0-0---0-0-------|



e|------------------------------|
B|------------------------------|
G|--------------------------5~--|
D|------------------------------|
A|------------------------------|
D|--0-0---0-0---0-0---0-0-------|



e|------------------------------|
B|------------------------------|
G|--------------------------5~--|
D|------------------------------|
A|------------------------------|
D|--0-0---0-0---0-0---0-0-------|



e|------------------------------|
B|------------------------------|
G|--------------------------5~--|
D|------------------------------|
A|------------------------------|
D|--0-0---0-0---0-0---0-0-------|



e|-0h300--------0h300--------0h300-0h300-0h300----------| FOOTNOTE    PT1
B|-0--00--------0--00--------0--00-0--00-0--00----------|
G|-2h333--------2h333--------2h333-2h333-2h333----------|
D|-0--00--------0--00--------0--00-0--00-0--00----------|
A|------------------------------------------------------|
D|------0-0--0-0-----0-0--0-0-----------------0-0--0-0--|



THEN
e|--------------------------------------0h300-0h300-0h300|  FOOTNOTE     PT2
B|--------------------------------------0--00-0--00-0--00|
G|--------------------------------------2h333-2h333-2h333|
D|-2/542-5----4----2---2-2--2-2-547-7-7-0--00-0--00-0--0-|
A|------0-0--0-0--0-0--0-0--0-0-000-0-0------------------|
D|-------------------------------------------------------|



e|-0h300--------0h300--------0h300-0h300-0h300----------|
B|-0--00--------0--00--------0--00-0--00-0--00----------|
G|-2h333--------2h333--------2h333-2h333-2h333----------|
D|-0--00--------0--00--------0--00-0--00-0--00----------|
A|------------------------------------------------------|
D|------0-0--0-0-----0-0--0-0-----------------0-0--0-0--|



VERSE IS THE SAME AS THE SECONDARY INTRO REPEATED BUT IF YOU LISTEN TO THE TRACK 
YOU WILL HEAR THE SPACES BETWEEN THE FIRST 

PART ARE LONGER AND THERE IS NO SECOND PART IN THE FIRST VERSE



MIDDLE 8/BRIDGE



e|--------------------------------------------------------|
B|----------------------------------------3------6------3-|
G|----------------------------------------2------5------2-|
D|----------------------------------------0------0------0-|
A|-3-3--3-3--3-3--3-3/10-10--10-10---0000-0-0000-0-0000-0-|
D|-3-3--3-3--3-3--3-3/10-10--10-10---0000---0000---0000---|



e|--------------------------------------------------3/55\3-|
B|--------------------------------------------------3/55\3-|
G|---------------------------------------------------------|
D|---------------------------------------------------------|
A|-3-3--3-3--3-3--3-3/10-10--10-10\9-9--9-9\222222/7-------|
D|-3-3--3-3--3-3--3-3/10-10--10-10\9-9--9-9\222222/7-------|



SOLO RHYTHEM


e|--------------------|--------------------|--------------------|
B|--------------------|--------------------|--------------------|
G|--------------------|--------------------|--------------------|
D|--------------------|--------------------|--------------------|
A|-3-3--3-3--3-3--3-3-|-3-3--3-3--3-3--3-3-|-3-3--3-3--3-3--3-3-|
D|-3-3--3-3--3-3--3-3-|-3-3--3-3--3-3--3-3-|-3-3--3-3--3-3--3-3-|



e|--------------------|----------------------------|--------------------|
B|--------------------|----------------------------|--------------------|
G|--------------------|----------------------------|--------------------|
D|--------------------|----------------------------|--------------------|
A|-5-5--5-5--5-5--5-5-|-10-10--10-10--10-10--10-10-|-3-3--3-3--3-3--3-3-|
D|-5-5--5-5--5-5--5-5-|-10-10--10-10--10-10--10-10-|-3-3--3-3--3-3--3-3-|



e|----------|--------------------|------------------|-------------|
B|----------|--------------------|------------------|-------------|
G|----------|--------------------|------------------|-------------|
D|----------|--------------------|------------------|-------------|
A|-3-3h5-5p-|-2-2--2-2--2-2--2-2-|-5-5--5-5/7-7--7-7|7777777777777|
D|-3-3h5-5p-|-2-2--2-2--2-2--2-2-|-5-5--5-5/7-7--7-7|7777777777777|



OUTRO!!  PLAY LAST VERSE LIKE NORMAL THEN....



e|----------0h300--------0h300--------0h300-0h300-0h300-| FOOTNOTE DON'T 
B|----------0--00--------0--00--------0--00-0--00-0--00-| WORRY IF YOU CATCH
G|-33333333-2h333--------2h333--------2h333-2h333-2h333-| OTHER STRINGS HERE
D|-00000000-0--00--------0--00--------0--00-0--00-0--00-| IT ONLY MAKES 
A|---------------0-0--0-0-----0-0--0-0------------------| IT SOUND BETTER!!
D|------------------------------------------------------|

THEN NORMAL AGAIN


e|-2222222---------0h300--------0h300--------0h300-0h300-0h300-|
B|-2222222---------0--00--------0--00--------0--00-0--00-0--00-|
G|-222222233333333-2h333--------2h333--------2h333-2h333-2h333-|
D|-222222200000000-0--00--------0--00--------0--00-0--00-0--00-|
A|----------------------0-0--0-0-----0-0--0-0------------------|
D|-------------------------------------------------------------|

THEN NORMAL AGAIN THEN

e|---------------------------|
B|---------------------------|
G|---------------------------|
D|-10-10-----10-10-----10-10-|
A|-10-10-h12-10-10-h12-10-10-|
D|-10-10-----10-10-----10-10-|



e|---------------------|
B|---------------------|
G|---------------------|
D|-5-5-----5-5-----5-5-|
A|-5-5-h7--5-5-h7--5-5-|
D|-5-5-----5-5-----5-5-|  



e|------------|
B|------------|
G|------------|
D|------------|
A|-5/7-7-5/7-7|
D|-5/7-7-5/7-7|


  
e|------------------5---5-----5----------|  HERE LET THE NOTES HANG FOR AS 
B|------------------6-----6-----6--------|  LONG AS POSSIBLE
G|------------------5-------5-----5------|
D|----------------------------------0----|
A|-8-9-10-11-12--0-0------------------0--|
D|-8-9-10-11-12--0-0--------------------0|
Tap to rate this tab
 
# A B C D E F G H I J K L M N O P Q R S T U V W X Y Z