Status Quo - Party Aint Over Yet tab

-------------------------------------------------------------------------------
PARTY AINT OVER YET - Status Quo
-------------------------------------------------------------------------------
Tabbed by: ilikefood740

Tuning: Standard
Intro
e|-------------------------------------------------------|
B|-12-12-11-9------9-9-11-9-------12-12-11-9-------------|
G|------------10------------10---------------------------|
D|-----------------------------12------------------------|
A|-------------------------------------------------------|
E|-------------------------------------------------------|

E|-----------------------------11-9--------------------------|
B|-----9-9-11-9-----9-11-12-12------12-11-9-11-11------------|
G|11------------10-------------------------------------------|
D|-----------------------------------------------------------|
A|-----------------------------------------------------------|
E|-----------------------------------------------------------|

e|--------------------------8/9--8/9--9-------------|
B|-9----------12-11-9-11-9--8/9--8/9--9-------------|
G|---10---------------------------------------------|
D|------12------------------------------------------|
A|--------------------------------------------------|
E|--------------------------------------------------|

Verse
e|--------------------------------------------------|
B|--------------------------------------------------|
G|--------------------------------------------------|
D|-4444------6686-6686------------------------------|
A|-2222-4444-4444-4444------------------------------|
E|------2222----------------------------------------|

there's a trouble wind blowing through my crazy life
i feel the chill begin, it's gonna be a long long night
i hear the thunder roll, but i dont fear the lightning strike
'cause deep inside i know
i'm gonna make it through alright

Chorus
e|--------------------------------------------------|
B|--------------------------------------------------|
G|--------------------------------------------------|
D|------6666-------6666-----------------------------|
A|-4444-4444--6666-4444-----------------------------|
E|-2222-------4444----------------------------------|
so let the walls come tumbling down

e|--------------------------------------------------|
B|--------------------------------------------------|
G|--------------------------------------------------|
D|------6666----------------------------------------|
A|-4444-4444--6666-6686-6686------------------------|
E|-2222-------4444-4444-4444------------------------|

bring on the last sunset
Chorus
e|--------------------------------------------------|
B|--------------------------------------------------|
G|--------------------------------------------------|
D|------6666------6666------------------------------|
A|-4444-4444-6666-4444------------------------------|
e|-2222------4444-----------------------------------|


i ain't moving to heartbreak town
e|--------------------------------------------------|
B|--------------------------------------------------|
G|--------------------------------------------------|
D|------6666----------------------------------------|
A|-4444-4444--6666-6686-6686------------------------|
E|-2222-------4444-4444-4444------------------------|


the party ain't over yet
e|--------------------------------------------------|
B|--------------------------------------------------|
G|--------------------------------------------------|
D|------------6666-6666-----------------------------|
A|-4444--6666-4444-4444-----------------------------|
E|-2222--4444---------------------------------------|

From watching live on their Just Doin' It DVD I noticed Francis will often just strum 
the B5 F#f and C#5

there's a trouble wind blowing through my crazy life
i feel the chill begin, it's gonna be a long long night
i hear the thunder roll, but i dont fear the lightning strike
'cause deep inside i know
i'm gonna make it through alright

so let the walls come tumbling down
bring on the last sunset
i ain't moving to heartbreak town
the party ain't over yet
yeh, let the devil do his worst
but don't take any bets
that life has finally quenched my thirst
the party ain't over yet

every drop of rain that ever fell into my eyes
helps me ride this pain, they were a blessing in disguise
and i know in time, this'll soon be yesterday
there's nothing i can't climb, i've got the will to find the way

so let the walls come tumbling down
bring on the last sunset
i ain't moving to heartbreak town
the party ain't over yet
yeh, let the devil do his worst
but don't take any bets
that life has finally quenched my thirst
the party ain't over yet

so when the morning comes, i'll do more than just survive
i'll walk in to the sun, and live until i die

so let the walls come tumbling down
bring on the last sunset
i ain't moving to heartbreak town
the party ain't over yet
yeh, let the devil do his worst
but don't take any bets
that life has finally quenched my thirst
the party ain't over yet

the party ain't over yet
the party ain't over yet
the party ain't over yet
the party ain't over yet

************************************

| /   slide up
| \   slide down
| h   hammer-on
| p   pull-off
| ~   vibrato
| +   harmonic
| x   Mute note
| b   Bend
| pb  Pre-bend
| br  Bend release
| pbr Pre-bend release
| brb Bend release bend

************************************
Tap to rate this tab
 
# A B C D E F G H I J K L M N O P Q R S T U V W X Y Z