Status Quo - Dust To Gold tab

Dust to Gold
Status Quo
Quid Pro Quo 2011



e|-11-11-11-11-11-11-9-9-9-9-7-7-7-7-9-9-|
B|-7--7--7--7--7--7--7-7-7-7-7-7-7-7-7-7-|
G|---------------------------------------|
D|---------------------------------------|
A|---------------------------------------|
E|---------------------------------------|



e|-7-7-7-7-7-7-5-5-5-5-3-3-3-3-5-5-|
B|-3-3-3-3-3-3-3-3-3-3-3-3-3-3-3-3-|
G|---------------------------------|
D|---------------------------------|
A|---------------------------------|
E|---------------------------------|
Tap to rate this tab
 
# A B C D E F G H I J K L M N O P Q R S T U V W X Y Z