Song name
# A B C D E F G H I J K L M N O P Q R S T U V W X Y Z

Status Quo - Leave A Little Light On tab

Leave a Little Light On
Status Quo
Quid Pro Quo 2011


  Gtr. 1
E|---------------|---------------|---------------|---------------|
B|---------------|---------------|---------------|---------------|
G|---------------|---------------|---------------|------------7--|
D|-9-9-9-9-9-----|------------7--|-7-7-7-7-7--7--|-9-9-9-9-9--7--|
A|-7-7-7-7-7--9--|-7-7-7-7-7--4--|-5-5-5-5-5--4--|-7-7-7-7-7--7--|
E|------------7--|-5-5-5-5-5-----|---------------|---------------|


  Gtr. 2 (w/ slide)
E|---------------|---------------|---------------|---------------|
B|-9----------12\|-8----------12\|-7-------------|---------------|
G|---------------|---------------|-----------9-9-|-(9)-----------|
D|---------------|---------------|---------------|---------------|
A|---------------|---------------|---------------|---------------|
E|---------------|---------------|---------------|---------------|

Tap to rate this tab
 
# A B C D E F G H I J K L M N O P Q R S T U V W X Y Z