Song name
# A B C D E F G H I J K L M N O P Q R S T U V W X Y Z

Status Quo - In My Chair tab

I am a novice at tabs so this might not be 100% but it sounds correct.


the main riff:
E-0---4-------------------------------3---0-------------------------------|
B---------0---1---2-------2---0^1^0---------------------------------------|
G---------------------0---------------------------------------------------|
D---------------------------------------------1---------------------------|
A---------------------------------------------0---------------------------|
E---------------------------------------------0---------------------------|
play this twice at the begining then when the third one comes you play it without the 
last part. play E through the riff.

E
i see her talking now, my ear's are burning........
A
my eye's were half open but, she didnt see me there
B                          D            A          E
we ran along walkin across the rooftops in my chair,

the solo lead bits are:
   A                              E
E--------------------------------12-----------------12-------------------|
B-14-14-14-14-12-14-14-14-14-12-------9-----------9----------------------|
G-14-14-14-14-12-14-14-14-14-12-----------7^9^7--------------------------|
D------------------------------------------------------------------------|
A------------------------------------------------------------------------|
E----------------------------------------------------------0---2---3---4-|
   A                    B                  D         A
E-----------------------2-----------------------------------------------|
B-2-2-2-2-0-2-2-2-2-0------------------3---7-7-7-7-7-2-2-2-2------------|
G-2-2-2-2-0-2-2-2-2-0------4---2---4-------7-7-7-7-7-2-2-2-2------------|
D-----------------------------------------------------------------------|
A-----------------------------------------------------------------------|
E-----------------------------------------------------------------------|

on the record the riff fades out but i think it sounds good if you play the solo riff 3 
times than play the intro riff and end it on a sharp E.

^=hammer on and pull of

this is only my second tab so it will not be very accurate but it is how i play the song.
Tap to rate this tab
# A B C D E F G H I J K L M N O P Q R S T U V W X Y Z