Song name
# A B C D E F G H I J K L M N O P Q R S T U V W X Y Z

Status Quo - Ol Rag Blues tab

Ol' Rag Blues
Status Quo
Back To Back 1983


CHORDS
Intro:
|C        |G        |F        |F        | 2x


Verse
|C        |G        |F        |C        |
|C        |G        |F        |G        |
|C        |G        |F        |C        |
|C        |G        |F        |G        |

Chorus
|C        |G        |F        |F        |
|C        |G        |F        |F        |
|C        |G   E7/G#|Am   |Am  |
|G        |G        |G7      |Gsus4|

Bridge:
|Csus4  |C        |Csus4 |C        |
|Csus4  |C        |G       |G        |
|G         |G        |

Solo:
|C        |G        |F        |F        |
|C        |G        |F        |F        |

Ending
|C        |G   E7/G#|Am   |Am  |
|G        |G        |G7      |Fm7   |C       |

LEAD GUITAR

Intro:
   C      G F           C            G F
E|-88-8-8------8---10---12-10-8-10-8-7-14b-14b-14b-14b-14b-14b-|
B|--------8--8---8----8----------------------------------------|
G|-------------------------------------------------------------|
D|-------------------------------------------------------------|
A|-------------------------------------------------------------|
E|-------------------------------------------------------------|

Fill 1

E|---------|
B|-17\-----|
G|-17\-----|
D|---------|
A|---------|
E|---------|

Fill 2

E|-------------|
B|-6-5---------|
G|-----5-------|
D|-------5-----|
A|---------8-7-|
E|-------------|

Fill 3

E|------------------|
B|------------------|
G|-7b-rb-7b-7---5---|
D|------------7---7-|
A|------------------|
E|------------------|

Fill 4

E|------------------------|
B|-----17--------17-------|
G|-17b----17-17b----17-17-|
D|------------------------|
A|------------------------|
E|------------------------|

Fill 5

E|----------------------|
B|----------------------|
G|-7b-7b-rb-5-4-5p4-----|
D|------------------5-5-|
A|----------------------|
E|----------------------|

Fill 6

E|-13b-rb-13-12-13-12-13-12-------|
B|--------------------------13----|
G|-----------------------------12-|
D|--------------------------------|
A|--------------------------------|
E|--------------------------------|

Fill 7

E|------|
B|------|
G|------|
D|------|
A|-10\--|
E|-8-\--|

Fill 8

E|----------------12-|
B|-----------10-8-12-|
G|-----7-9-7---------|
D|-5/9---------------|
A|-------------------|
E|-------------------|

Solo

E|--------15---------------12----20b-20------------------------------------|
B|-15b-15----15b-15b-13-15----13--------20b-20-18-18-18-18-17-------17-----|
G|------------------------------------------------------------19-17----19--|
D|-------------------------------------------------------------------------|
A|-------------------------------------------------------------------------|
E|-------------------------------------------------------------------------|

E|----------------------|
B|----------------------|
G|-17-16----------------|
D|-------19-19-16/17-17-|
A|----------------------|
E|----------------------|
Tap to rate this tab
# A B C D E F G H I J K L M N O P Q R S T U V W X Y Z