Song name
# A B C D E F G H I J K L M N O P Q R S T U V W X Y Z

Status Quo - Hold You Back tab

This is my first TAB . E-mail me your comments @ carpetiles@hotmail.com.Pleeease.

Tuning:Standard tuning (E,B,G,D,A,E)

E|-12-10-9-7-5-2-0-2-12-10-9-7-5-|
B|-------------------------------|
G|-------------------------------|
D|-------------------------------|
A|-------------------------------|
E|-------------------------------|

E|-12-10-9-7-5-2-2-0-0-2-2-12-10-9-7-5-|
B|-------------------------------------|
G|-------------------------------------|
D|-------------------------------------|
A|-------------------------------------|
E|-------------------------------------|

E|5-7-9-12-10-9-7-9-7-5---5-7-9-12-10-9-7(0-0-0)-|
B|-----------------------------------------------|
G|-----------------------------------------------|
D|-----------------------------------------------|
A|-----------------------------------------------|
E|-----------------------------------------------|


E|5-7-9-12-10-9-7-5-5-7-9-12-10-0-5-|
B|----------------------------------|
G|----------------------------------|
D|----------------------------------|
A|----------------------------------|
E|----------------------------------|
Tap to rate this tab
 
# A B C D E F G H I J K L M N O P Q R S T U V W X Y Z