Song name
# A B C D E F G H I J K L M N O P Q R S T U V W X Y Z

Status Quo - Dont Waste My Time tab

			  Status Quo - Don't Waste My Time
Tabbed by: Captain Quo

Tuning: Standard EADGBe

If you are like me and can't get your head round chords but still want to rock, this is 
tab for you. This is Quo's classic song from the album Piledriver.

Intro

e|----99999999-----99999999-----9--8--7------------------------|
B|----88888888-----88888888------------------------------------|
G|--9999999999---9999999999---99-98-87-76--7-9-7-6764-44444444-|
D|----------------------------------------------------22222222-|
A|-------------------------------------------------------------|
E|-------------------------------------------------------------|

Verse Pattern (Also played during Francis' Solos)

e|------------------------------------------------------------------------|
B|------------------------------------------------------------------------|
G|22-24-22-24-22-24-22-24-------------------------22-24-22-24-22-24-22-24-|
D|00-00-00-00-00-00-00-00-22-24-22-24-22-24-22-24-00-00-00-00-00-00-00-00-|
A|------------------------00-00-00-00-00-00-00-00-------------------------|
E|------------------------------------------------------------------------|

e|------------------------------------------------------------------------|
B|------------------------------------------------------------------------|
G|44-44-44-44-44444444444-22-24-22-24-22-24-22-24-------------------------|
D|22-22-22-22-22222222222-00-00-00-00-00-00-00-00-22-24-22-24-66-66-66-66-|
A|------------------------------------------------00-00-00-00-44-44-44-44-|
E|------------------------------------------------------------------------|

e|--------------------------------------------------------------------------|
B|--------------------------------------------------------------------------|
G|--------------------------------------------------Play All This Twice-----|
D|44-44-44-44-9-7-6-4-2-22-22-22-22-----------------------------------------|
A|22-22-22-22-7-5-4-2-0-00-00-00-00-22-22-22--------------------------------|
E|----------------------------------00-00-00--------------------------------|

This is the part where it is just Rick on his own, no drums or anything

e|--------------------------------------------------------------------------|
B|--------------------------------------------------------------------------|
G|--------------------------------------------------------------------------|
D|22-24-25-24-22-24-25-24-2------------------------2-24-25-24-22-24-25-24-2-|
A|-------------------------2-24-25-24-22-24-25-24-2-------------------------|
E|--------------------------------------------------------------------------|

e|--------------------------------------------------------------------------|
B|--------------------------------------------------------------------------|
G|4-44-44-44-44444444-------------------------------------------------------|
D|2-22-22-22-22222222-------------------------------------------------------|
A|--------------------------------------------------------------------------|
E|--------------------------------------------------------------------------|

Hope You Enjoy This, sorry if there are any problems, this is my first tab.
Tap to rate this tab
 
# A B C D E F G H I J K L M N O P Q R S T U V W X Y Z