Song name
# A B C D E F G H I J K L M N O P Q R S T U V W X Y Z

Status Quo - Railroad tab

Status Quo - Railroad 
Tabbed by Schumi

* in standard tuning*

Intro/chorus:

e-------------------------------------------|
B-------------------------------------------|
G------------7-7-7-5------------------------|
D--7-7-7-5-----------7-7-7-7-5---------5----|
A----------7-------------------7-5h6h7---7--|				
E-------------------------------------------|

Verse:
	4x	   3x (the 5-4) only in last bar)
e-----------------|e-----------------------|
B-----------------|B-----------------------|
G-----------------|G--2-2-4-22-2-4--(5-4)--|
D--2-2-4-22-2-4---|D--0-0-0-00-0-0--(0-0)--|
A--0-0-0-00-0-0---|A-----------------------|			
E-----------------|E-----------------------|

	4x
e-----------------|e-----------------------|
B-----------------|B-----------------------|
G-----------------|G-----------------------|
D--2-2-4-22-2-4---|D--4-44-44-44-4---------|
A--0-0-0-00-0-0---|A--2-22-22-22-2---------|			
E-----------------|E-----------------------|

e-----------------|
B-----------------|
G-----------------|
D-----------------|
A--2-2-4--22-2-4--|			
E--0-0-0--00-0-0--|


That's pretty much it. The 2nd part is just a normal blues 
riff, something like the verse. I don't feel like tabbing
the solo now, maybe i'll update it later. If you really 
want it, mail me and i see if i got some time to tab it.

Any corrections are 
welcome, please mail them to 241487@edu.hesasd.nl

Greetz, Schumi.
Tap to rate this tab
# A B C D E F G H I J K L M N O P Q R S T U V W X Y Z