Song name
# A B C D E F G H I J K L M N O P Q R S T U V W X Y Z

Status Quo - Making Waves tab

Help us improve GuitareTab! Take a short survey!
Making Waves
Status Quo


Intro: 
Rythm guitar                           16x
E||-----------------|-----------------||------------------||
B||*3-----3-----3---|--3-----0---0---*||*----------------*||
G||-2-----2-----2---|--2-----0---0----||---2---2---2---2--||
D||-0-0-0-0-0-0-0-0-|0-0-0-0-0-0-0-0--||-0---0---0---0----||
A||*----------------|----------------*||*----------------*||
E||-----------------|-----------------||------------------||

Lead guitar:

  +       1  +  2 + 3 + 4 +  1  + 2 + 3  +  4  +
E|-----||-------------------|---------------------||
B|-----||*------------------|--------------------*||
G|11-11||-11-11-9-0-7-0-9-0-|11-0-9-0-12-12-11-0--|| 3x
D|-----||-0-----0---0---0---|0----0---0-----0-----||
A|-----||*------------------|--------------------*||
E|-----||-------------------|---------------------||


E|----------------|----------------|
B|----------------|----------------| 
G|7-----7---7-7---|--7---7-7-7-7---| Repeat the whole thing
D|--0-0---0-----0-|0---0-----------| to complete the intro.
A|----------------|----------------|
E|----------------|----------------|


Verse:
I'm not exactly gonna write out the rythm part of the verse but I'll give
a few hints.

Guitar 1  : |D    |D    |A    |A    |A    |A    |D    |D    |
Rythm type: |D5/D6      |A5/A6/A7               |D5/D6|D5/D6/D7 |

Guitar 2  : (play a.o.)
          .   . 
E|----------------|
B|----------------|
G|----------------| Play the notes under the dots short.
D|7-7-9-7-7---9---|
A|5-5-5-5-5---5---|
E|----------------|


Chorus:

E|----------------|----------------|----------------|
B|----------------|----------------|5-5-5-5-5-5-5-5-|
G|----------7-----|----------7-----|7-7-7-7-7-7-7-7-|
D|6/7-7-7-7-7-----|6/7-7-7-7-7-----|6-6-6-6-6-6-6-6-|
A|4/5-5-5-5-------|4/5-5-5-5-------|7-7-7-7-7-7-7-7-|
E|----------------|----------------|----------------|


E|----------------|3-3-3-3-3-3-3-3-|3-3-3-3-3-3-3-3-|
B|5-5-5-5-5-5-5-5-|3-3-3-3-3-3-3-3-|3-3-3-3-3-3-3-3-|
G|7-7-7-7-7-7-7-7-|4-4-4-4-4-4-4-4-|4-4-4-4-4-4-4-4-|
D|6-6-6-6-6-6-6-6-|5-5-5-5-5-5-5-5-|5-5-5-5-5-5-5-5-|
A|7-7-7-7-7-7-7-7-|----------------|----------------|
E|----------------|----------------|----------------|



E|--------------------|------------------|------------------------|
B|--------------------|------------------|------------------------|
G|--------------------|------------------|------------------------|
D|6/7-7-7-7-6/7-7-7-7-|6/7-7-7-7-7-7-7-7-|10-10-10-10-10-10-10-10-|
A|4/5-5-5-5-4/5-5-5-5-|4/5-5-5-5-5-5-5-5-|8--8--8--8--8--8--8--8--|
E|--------------------|------------------|------------------------|


E|------------------------|------------------|------------------|
B|------------------------|------------------|------------------|
G|------------------------|------------------|------------------|
D|------------------------|6/7-7-9-7-7-7-7-7-|6/7-7-9-7-7-7-7-7-|
A|10-10-10-10-10-10-10-10-|4/5-5-5-5-5-5-5-5-|4/5-5-5-5-5-5-5-5-|
E|8--8--8--8--8--8--8--8--|------------------|------------------|


E|----------------|----------------|--------|-------|
B|3-3-3-3-3-------|5-5-5-5-5-------|3-------|-------|
G|4-4-4-4-4-------|6-6-6-6-6-------|4-------|-------|
D|5-5-5-5-5-------|7-7-7-7-7-------|5-------|-------|
A|----------------|----------------|--------|-------|
E|----------------|----------------|--------|-------|


Break:
Guitar1
   2x 
E||-----------------|-----------------||
B||*----------------|----------------*||
G||-----------------|-----------------||
D||-----------------|-----------------||
A||*----0---1---0---|------0---------*||
E||-3-----3-------3-|1---3---3--------||

   2x
E||-----------------|-----------------||
B||*----------------|----------------*||
G||-----------------|-----------------||
D||-----------------|-----------------||
A||*----0---1-1-0---|------0---------*||
E||-3-3---3-------3-|1-1-3---3----3-3-|| (last two are sixteenth notes)


   3x
E||-------------------|------------------|
B||*------------------|------------------|
G||-------------------|------------------|
D||-------------------|------------------|
A||*--0-3-5-5b6r5-3-0-|--0-3-5-5b6r5-3-0-|
E||-------------------|------------------|


E|----------------|-----------------||
B|----------------|----------------*||
G|----------------|5p4-5p4-5p4------||
D|--------2/5-5-7-|------------7-7\-||
A|--0-3-5---------|----------------*||
E|----------------|-----------------||

   2x
E||-------------------|--------------------|
B||*------------------|--------------------|
G||-11-11-9-0-7-0-9-0-|11-0-9-0-12-12-11-0-|
D||-0-----0---0---0---|0----0---0-----0----|
A||*------------------|--------------------|
E||-------------------|--------------------|


E|------------------|--------------------|
B|------------------|--------------------|
G|------------------|--------------------|
D|11-11-9-0-7-0-9-0-|11-0-9-0-12-12-11-0-|
A|0-----0---0---0---|0----0---0-----0----|
E|------------------|--------------------|


E|------------------|--------------------|
B|------------------|--------------------|
G|------------------|--------------------|
D|11-11-9-0-7-0-9-0-|11-0-9-0-12-12-11-0-|
A|0-----0---0---0---|0----0---0-----0----|
E|------------------|--------------------|


E|------------------|---------------------||
B|------------------|--------------------*||
G|11-11-9-0-7-0-9-0-|11-0-9-0-12-12-11-0--||
D|0-----0---0---0---|0----0---0-----0-----|| The second time you replace
A|------------------|--------------------*|| the last two bars by the bars
E|------------------|---------------------|| hereunder.


E|----------------|----------------|
B|----------------|----------------|
G|7-----7---7-7---|--7---7-7-7-7---|
D|--0-0---0-----0-|0---0-----------|
A|----------------|----------------|
E|----------------|----------------|

Second guitar 
   2x
E||-----------------|-----------------||
B||*----------------|----------------*||
G||-----------------|-----------------||
D||-5---------------|3-------5--------||
A||*5---------------|3-------5-------*||
E||-3---------------|1-------3--------||

   2x
E||-----------------|--------------------||
B||*----------------|-------------------*||
G||-----------------|--------------------||
D||-5-5-5-5-5-5-5-5-|3-3-3-3-5---5--5-5--||
A||*5-5-5-5-5-5-5-5-|3-3-3-3-5---5--5-5-*||
E||-3-3-3-3-3-3-3-3-|1-1-1-1-3---3--3-3--||


   3x
E||-----------------|----------------|
B||*----------------|----------------|
G||-----------------|----------------|
D||---7-7-7-7-7-7-7-|--7-7-7-7-7-7-7-|
A||*--7-7-7-7-7-7-7-|--7-7-7-7-7-7-7-|
E||---5-5-5-5-5-5-5-|--5-5-5-5-5-5-5-|


E|----------------|-----------------||
B|----------------|----------------*||
G|----------------|-----------------||
D|--7-5-5-5-5-5-5-|5-5-5-5-5-5-7-7--||
A|--7-5-5-5-5-5-5-|5-5-5-5-5-5-7-7-*||
E|--5-3-3-3-3-3-3-|3-3-3-3-3-3-5-5--||

   2x
E||-----------------|----------------|----------------|----------------|
B||*----------------|----------------|----------------|----------------|
G||---2---2---2---2-|--2---2---2---2-|----------------|----------------|
D||-0---0---0---0---|0---0---0---0---|--2---2---2---2-|--2---2---2---2-|
A||*----------------|----------------|0---0---0---0---|0---0---0---0---|
E||-----------------|----------------|----------------|----------------|


E|----------------|----------------|----------------|-----------------||
B|----------------|----------------|----------------|----------------*||
G|----------------|----------------|--2---2---2---2-|--2---2---2---2--||
D|--2---2---2---2-|--2---2---2---2-|0---0---0---0---|0---0---0---0----||
A|0---0---0---0---|0---0---0---0---|----------------|----------------*||
E|----------------|----------------|----------------|-----------------||
Related for Making Waves tab