Song name
# A B C D E F G H I J K L M N O P Q R S T U V W X Y Z

Status Quo - The Party Aint Over Yet tab

The Party Aint Over Yet - Status Quo
Tabbed by: Curtis
Email: Rocker4500@aol.com
Tuning: EADGBe (standard)

Intro (Francis Rossi plays the lead part, Rick PArfitt plays the chords.)

   B     F#       C#                  B     F#       C#
e|---------------------------------------------------------------------------|
B|-12-12-11-------------11------------12-12-11-------------11----------------|
G|----------13-11-13-13----13-10---------------13-11-13-13----13-------------|
D|-------------------------------11------------------------------------------|
A|---------------------------------------------------------------------------|
E|---------------------------------------------------------------------------|

            B        F#     C#
e|----------------11---------------------------------------------------------|
B|----------12-12---14-12-11-------11----------------------------------------|
G|-------11------------------13-13----13-10----------------------------------|
D|-11-13------------------------------------11-------------------------------|
A|---------------------------------------------------------------------------|
E|---------------------------------------------------------------------------|

   B        F#        C#
e|--------------------8/9-9-9-9-8/9-9-9-8/9-9-9--13-11-9---------------------|
B|-12-11----------11--8/9-9-9-9-8/9-9-9-8/9-9-9------------------------------|
G|-------13-11-13------------------------------------------------------------|
D|---------------------------------------------------------------------------|
A|---------------------------------------------------------------------------|
E|---------------------------------------------------------------------------|


V1

          B       F#   C#
There's a trouble wind
        B          F#    C#
Blowin' through my crazy life
           B       F#  C#
I feel the chill begin
           B     F#       C#
It's gonna be a long long night
           B       F#   C#
I hear the thunder roar
            B        F#        C#
But I don't hear the lightning strike
             B      F#    C#
Cause deep inside I know
          B       F#        C#
I'm gonna make it through alright


Chorus

   F#      C#         G#       C#
So let the walls come tumblin' down
      F#     C#      G#
Bring on the last sunset
F#     C#        G#         C#
I aint movin' to heartbreak town
F#         G#   C#
Party aint over yet!
      F#      C#    G#     C#
Yeah! Let the devil do his worst
    F#         C#  G#
But don't take any bets
   F#       C#      G#          C#
My life has finally quenched my thirst
F#         G#   C#
Party aint over yet!


Bridge
(same as intro)


V2

      B       F#   C#
Every drop of rain
          B      F#    C#
That ever fell into my eyes
     B      F#   C#
Everybody's pain
             B        F#     C#
They where a blessing in disguise
      B       F#   C#
And I know in time
          B       F#    C#
This will soon be yesterday
                B       F#    C#
There's nothin' I can't climb
             B       F#     C#
I've got the will to find a way


Chorus (same as previous chorus)

Bridge (same as previous bridge)


Middle 8
> Play each chord once and let it ring until the next change <
>> Play the lead riff(see intro) behind the chords)  <<

            B       F#    C#
So when the morning comes
        B         F#       C#
I'll do more than just survive
            B      F#  C#
I'll walk into the sun
    B       F#   C#{increase volume} C# {stop dead}
And live until I die!


Chorus (same as previous chorus)


Outro
Repeat main riff (see intro) Although there is a slight variation, you should be able to 
it.
Chords are -

B F# C# C# F# G# C# C#

End on C#


Please e-mail me your thoughts - Rocker4500@aol.com


| /  slide up
| \  slide down
| h  hammer-on
| p  pull-off
| ~  vibrato
| +  harmonic
| x  Mute note
===============================================================================
Tap to rate this tab
 
# A B C D E F G H I J K L M N O P Q R S T U V W X Y Z