Song name
# A B C D E F G H I J K L M N O P Q R S T U V W X Y Z

Status Quo - Tune To The Music tab

Status Quo
Tune To The Music


Intro:
                 
E|--------------------------------------------------------------------|
H|-8------------------------------------------------------------------|
G|-7--2p4r2------2p4r2-----2p4r2---4r2---4r2--------------------------| 
D|-6--------5-2--------5-2-------5-----5-----5-2--2p4r2-----2p4r2-----|
A|-7----------------------------------------------------5-2-------5-2-|
E|--------------------------------------------------------------------|

E|--------------------------------------------------------------------|
H|--------------------------------------------------------------------|
G|-----------------------2p4r2------2p4r2-----2p4r2---4r2---4r2-------|
D|-2p4r2---4r2---4r2-----------5-2--------5-2-------5-----5-----5-2---|
A|-------5-----5-----5-2----------------------------------------------|
E|--------------------------------------------------------------------|

E|--------------------------------------------------------------------|
H|--------------------------------------------------------------------|
G|--------------------------------------------------------------------|
D|-2p4r2-----2p4r2-----2p4r2---4r2---4r2-----3p5r3-----3p5r3----------|
A|-------5-2-------5-2-------5-----5-----5-2-------6-3-------6-3------|
E|--------------------------------------------------------------------|

E|--------------------------------------------------------------------|
H|--------------------------------------------------------------------|
G|--------------------------------------------------------------------|
D|-3p5r3---5r3---5r3-----5p7r5-----5p7r5-----5p7r5---7r5---7r5--------|
A|-------6-----6-----6-3-------8-5-------8-5-------8-----8-----8-5----|
E|--------------------------------------------------------------------|

E|--------------------------------------------------------------------|
H|--------------------------------------------------------------------|
G|---2p4r2---4r2---4r2---4r2---4r2---4r2---4r2---4r2------------------| 
D|---------5-----5-----5-----5-----5-----5-----5-----5----------------|
A|--------------------------------------------------------------------|
E|--------------------------------------------------------------------|

E|------------------------------------|
H|------------------------------------|
G|-------------------------2----------| 
D|-------------1-1-1-1-1-1-1----------|
A|-2-2-2-2-2-2-2-2-2-2-2-2-2----------|
E|------------------------------------|


Tune To The Music

            E
Excuse me crying
                         H
Can't you hear what I'm saying?
             E
I guess I'm going
             H 
Going on my way.
                C
I know there's something
                    D
something's going wrong now
                        E     - H7
There's no tune to the music.

             E
My eyes are burning
               H 
Can't anybody hear me?
            E
My head is turning
                 H
I need somebody near me.
               C
But since you wonder
                   D 
Everything is so wrong.
                     E     - H7
There's tune to the music.

(Guitar intro)

                E
The sounds are ringing 
                      H
the emptiness is all mine.
          E
Nobody bringing
                      H 
the thing to make me feel fine.
                C  
I know there's something
                    D
something's going wrong now.
                        E     - H7
there's no tune to the music.

Rep.v1
No words to my song.

            
Tap to rate this tab
# A B C D E F G H I J K L M N O P Q R S T U V W X Y Z