Song name
# A B C D E F G H I J K L M N O P Q R S T U V W X Y Z

Status Quo - Dont Think It Matters tab

Don't Think It Matters
Status Quo


Guitar intro:

E|---------------------------------------------|
H|---------------------------------------------|
G|-7/12-12-12p10----10-----7/12-12-12p10----10-|
D|-7/12-12-12p10-12-10-12--7/12-12-12p10-12-10-|
A|---------------12----12----------------12----|
E|---------------------------------------------|

E|---------------------------------------------|
H|---------------------------------------------|
G|-7/12-12-12p10----10--------10-10-10-10-9-8-7|
D|-7/12-12-12p10-12-10-12--12-10-10-10-10-9-8-7|
A|---------------12----12--12------------------|
E|---------------------------------------------|

With the band:
      D
E|---------------------------------------------|
H|---------------------------------------------|
G|-7/12-12-12p10----10-----7/12-12-12p10----10-|
D|-7/12-12-12p10-12-10-12--7/12-12-12p10-12-10-|
A|---------------12----12----------------12----|
E|---------------------------------------------|

E|---------------------------------------------|
H|---------------------------------------------|
G|-7/12-12-12p10----10--------10-10-10-10-9-8-7|
D|-7/12-12-12p10-12-10-12--12-10-10-10-10-9-8-7|
A|---------------12----12--12------------------|
E|---------------------------------------------|

verse:
 D
Maybe I'm right, or maybe I'm wrong
                     C-D
I got to go on anyway
     D
I'm finding it hard to try and play the right card
                                  C-D
And woman you're getting in my way
         F              C         D 
Oh, you don't think it matters at all
         F              C         D
No, you don't think it matters at all
         F              G         D
No, you don't think it matters at all

Guitar:
     D
E|---------------------------------------------|
H|---------------------------------------------|
G|-7/12-12-12p10----10-----7/12-12-12p10----10-|
D|-7/12-12-12p10-12-10-12--7/12-12-12p10-12-10-|
A|---------------12----12----------------12----|
E|---------------------------------------------|

E|---------------------------------------------|
H|---------------------------------------------|
G|-7/12-12-12p10----10--------10-10-10-10-9-8-7|
D|-7/12-12-12p10-12-10-12--12-10-10-10-10-9-8-7|
A|---------------12----12--12------------------|
E|---------------------------------------------|

verse:
I'm working all night, you know I'm working all night
Trying to get something out of my head
I live for the day when everybody will say
It's better than all of the rest
Oh, you don't think it matters at all
No, you don't think it matters at all
No, you don't think it matters at all

Guitar:
     A
E|--------------------------------|
H|--------------------------------|
G|-2/7-7-7p5---5----2/7-7-7p5---5-|
D|-2/7-7-7p5-7-5-7--2/7-7-7p5-7-5-|
A|-----------7---7------------7---|
E|--------------------------------|

E|--------------------------------|
H|--------------------------------|
G|-2/7-7-7p5---5----2/7-7-7p5---5-|
D|-2/7-7-7p5-7-5-7--2/7-7-7p5-7-5-|
A|-----------7---7------------7---|
E|--------------------------------|
     D 
E|---------------------------------------------|
H|---------------------------------------------|
G|-7/12-12-12p10----10-----7/12-12-12p10----10-|
D|-7/12-12-12p10-12-10-12--7/12-12-12p10-12-10-|
A|---------------12----12----------------12----|
E|---------------------------------------------|

E|---------------------------------------------|
H|---------------------------------------------|
G|-7/12-12-12p10----10-----7/12-12-12p10----10-|
D|-7/12-12-12p10-12-10-12--7/12-12-12p10-12-10-|
A|---------------12----12----------------12----|
E|---------------------------------------------|
     A
E|--------------------------------|
H|--------------------------------|
G|-2/7-7-7p5---5----2/7-7-7p5---5-|
D|-2/7-7-7p5-7-5-7--2/7-7-7p5-7-5-|
A|-----------7---7------------7---|
E|--------------------------------|

E|----------------------------------|
H|----------------------------------|
G|-2/7-7-7p5---5------5-5-5-5-4-3-2-|
D|-2/7-7-7p5-7-5-7--7-5-5-5-5-4-3-2-|
A|-----------7---7--7---------------|
E|----------------------------------|

  Guitar solo:
          D 
E|--------------------------------------------------|
H|-----10-10-----10-10-----10-12b13-12-10----10-----|
G|-/11-------/11-------/11----------------11-----11-|
D|--------------------------------------------------|
A|--------------------------------------------------|
E|--------------------------------------------------|

   A 
E|------------------------------------|
H|-10--9--8-7-------------------------|
G|---11-10-9-6-6-5-4---6-4--------7b9-|
D|-------------------7-----7-6-5------|
A|------------------------------------|
E|------------------------------------|

   D
E|-5---5---5---5---5---5---5---5---5---5---5-------|
H|-5---5---5---5---5---5---5---5---5---5---5-8-5---|
G|--7b9-7b9-7b9-7b9-7b9-7b9-7b9-7b9-7b9-7b9------7-|
D|-------------------------------------------------|
A|-------------------------------------------------|
E|-------------------------------------------------|

   A
E|-----------------------------------------|
H|-5-8-5---5-8-5---5-8-5---5-8-5---5-8-5---|
G|-------7-------7-------7-------7-------7-|
D|-----------------------------------------|
A|-----------------------------------------|
E|-----------------------------------------|


E|----------------------------------------------12b14r12-|
H|-----10-10-----10-10-----10-12b13-12b13r12-10----------|
G|-/11-------/11-------/11-------------------------------|
D|-------------------------------------------------------|
A|-------------------------------------------------------|
E|-------------------------------------------------------|

   D 
E|-9----------------------------------------|
H|--12-10-12b14-13b15-14b16-12b14r12-10-----|
G|---------------------------------------11-|
D|------------------------------------------|
A|------------------------------------------|
E|------------------------------------------|

   A
E|------------------------------------------|
H|-10--9--8---------------------------------|
G|---11-10-9-5h6---5---7---5h6----------7b9-|
D|---------------7---7---7-----7-5-5-5------|
A|------------------------------------------|
E|------------------------------------------|

   D
E|-5---5---5---5---5---5-----------8-7-5--------|
H|-5---5---5---5---5---5---5-8-7-5-------8-7-5--|
G|--7b9-7b9-7b9-7b9-7b9-7b9---------------------|
D|----------------------------------------------|
A|----------------------------------------------|
E|----------------------------------------------|

   G                     A
E|---------3-----3---------------5-7b9-7b9-5-5--|
H|-----3-5---5b6---5-3-------5-7----------------|
G|-3h4-----------------4-5h6--------------------|
D|----------------------------------------------|
A|----------------------------------------------|
E|----------------------------------------------|

   G                          A
E|---------3-5b7-5b7r5p3---3------5-7b9-7b9r7p5---|
H|-----3h5---------------5----5h7---------------7-|
G|-3h4--------------------------------------------|
D|------------------------------------------------|
A|------------------------------------------------|
E|------------------------------------------------|

   G                 A
E|-8b10-8b10-8-7------10b12r10-9-10-9-------|
H|---------------8-7------------------10----|
G|---------------------------------------9--|
D|------------------------------------------|
A|------------------------------------------|
E|------------------------------------------|

    G              A
E|------7-7-----7--------9-10b12r10-9----9-|
H|----8-------8-------10--------------10---|
G|--7-------7-------9----------------------|
D|-----------------------------------------|
A|-----------------------------------------|
E|-----------------------------------------|

      D
E|----12b14-12-10-9-9--------------------------|
H|-10-----------------12-11-10-----------------|
G|-----------------------------12-10-11--------|
D|--------------------------------------12-----|
A|---------------------------------------------|
E|---------------------------------------------|

bridge: (study the tabs carefully in this bridge -
see marked strings to play!!)

                    D                            G
Maybe I'm right, H|---10-| or maybe I'm wrong H|---12-|
                 G|-11---|                    G|-12---|

I just do the best that I can

D|-12-10----------------|
A|-------12-11-10-8-----|
E|------------------10--|
                             D
I been working all night, H|---10-|  
                          G|-11---| 

                                  G
yeah I work through the night  H|---12-|
                               G|-12---|



Woman can't you understand

D|-12-10----------------|
A|-------12-11-10-8-----|
E|------------------10--|


Dbl. Lead Guitar break (bass guitar follows Gtr#1):
  Gtr#1:
E|-------------------------------------------------|
H|-------------------------------------------------|
G|-------------------------------------------------|
D|----12-12-12p10----10---------12-12-12p10----10--|
A|-12-------------12----12---12-------------12-----|
E|-------------------------------------------------|
 |Gtr#2:                                    |
E|-------------------------------------------------|
H|-------------------------------------------------|
G|-------------------------------------------------|
D|-----5--5--5p3-----3-----------5--5--5p3-------3-|
A|--5-------------5-----5-----5--------------5-----|
E|-------------------------------------------------|


  Gtr#1:
E|-------------------------------------------------|
H|-------------------------------------------------|
G|----------------------------------------------10-|
D|----12-12-12p10----10---------12-12-12p10--12----|
A|-12-------------12----12---12--------------------|
E|-------------------------------------------------|
 |Gtr#2:                                    |
E|-------------------------------------------------|
H|-------------------------------------------------|
G|-------------------------------------------------|
D|-----5--5--5p3-----3-----------5--5--5p3---------|
A|--5-------------5-----5-----5------------------3-|
E|--------------------------------------------5----|


  Gtr#1:
E|--------------------------------------------|
H|--------------------------------------------|
G|--12-12p10----10---------12-12-12p10----10--|
D|-----------12----12---12-------------12-----|
A|--------------------------------------------|
E|--------------------------------------------|
 |Gtr#2:   
E|--------------------------------------------|                                 |
H|--------------------------------------------|
G|--------------------------------------------|
D|--------------------------------------------|
A|---5--5p3-----3-----------5--5--5p3-------3-|
E|-----------5-----5-----5--------------5-----|


  Gtr#1:
E|-------------------------------------------------|
H|-------------------------------------------------|
G|----12-12-12p10----10---------12-12-12p10--------|
D|-12-------------12----12---12----------------10--|
A|------------------------------------------12-----|
E|-------------------------------------------------|
 |Gtr#2:   
E|-------------------------------------------------|                                 |
H|-------------------------------------------------|
G|-------------------------------------------------|
D|-----------------------------------------------3-|
A|-----5--5--5p3-----3-----------5--5--5p3---5-----|
E|--5-------------5-----5-----5--------------------|


  Gtr#1:
E|--------------------------------------------|
H|--------------------------------------------|
G|--------------------------------------------|
D|--12-12p10----10---------12-12-12p10----10--|
A|-----------12----12---12-------------12-----|
E|--------------------------------------------|
 |Gtr#2:                               |
E|--------------------------------------------|
H|--------------------------------------------|
G|--------------------------------------------|
D|---5--5p3-----3-----------5--5--5p3-------3-|
A|-----------5-----5-----5--------------5-----|
E|--------------------------------------------|


  Gtr#1:
E|-------------------------------------------------|
H|-------------------------------------------------|
G|-------------------------------------------------|
D|----12-12-12p10----10---------10-10-10-10-9-8-7--|
A|-12-------------12----12---12--------------------|
E|-------------------------------------------------|
 |Gtr#2:                                    |
E|-------------------------------------------------|
H|-------------------------------------------------|
G|-------------------------------------------------|
D|-----5--5--5p3-----3-----------------------------|
A|--5-------------5-----5--------3--3--3--3-2-1-0--|
E|----------------------------5--------------------|


 Guitar:
   D
E|---------------------------------------------|
H|---------------------------------------------|
G|-7/12-12-12p10----10-----7/12-12-12p10----10-|
D|-7/12-12-12p10-12-10-12--7/12-12-12p10-12-10-|
A|---------------12----12----------------12----|
E|---------------------------------------------|

E|---------------------------------------------|
H|---------------------------------------------|
G|-7/12-12-12p10----10-----7/12-12-12p10----10-|
D|-7/12-12-12p10-12-10-12--7/12-12-12p10-12-10-|
A|---------------12----12----------------12----|
E|---------------------------------------------|

E|---------------------------------------------|
H|---------------------------------------------|
G|-7/12-12-12p10----10-----7/12-12-12p10----10-|
D|-7/12-12-12p10-12-10-12--7/12-12-12p10-12-10-|
A|---------------12----12----------------12----|
E|---------------------------------------------|

E|---------------------------------------------|
H|---------------------------------------------|
G|-7/12-12-12p10----10-----7/12-12-12p10----10-|
D|-7/12-12-12p10-12-10-12--7/12-12-12p10-12-10-|
A|---------------12----12----------------12----|
E|---------------------------------------------|

         F              C         D
Oh, you don't think it matters at all
         F              C         D
No, you don't think it matters at all
         F              G         D
No, you don't think it matters at all


Guitar:
     A
E|--------------------------------|
H|--------------------------------|
G|-2/7-7-7p5---5----2/7-7-7p5---5-|
D|-2/7-7-7p5-7-5-7--2/7-7-7p5-7-5-|
A|-----------7---7------------7---|
E|--------------------------------|

E|--------------------------------|
H|--------------------------------|
G|-2/7-7-7p5---5----2/7-7-7p5---5-|
D|-2/7-7-7p5-7-5-7--2/7-7-7p5-7-5-|
A|-----------7---7------------7---|
E|--------------------------------|
     D 
E|---------------------------------------------|
H|---------------------------------------------|
G|-7/12-12-12p10----10-----7/12-12-12p10----10-|
D|-7/12-12-12p10-12-10-12--7/12-12-12p10-12-10-|
A|---------------12----12----------------12----|
E|---------------------------------------------|

E|---------------------------------------------|
H|---------------------------------------------|
G|-7/12-12-12p10----10-----7/12-12-12p10----10-|
D|-7/12-12-12p10-12-10-12--7/12-12-12p10-12-10-|
A|---------------12----12----------------12----|
E|---------------------------------------------|

    ....(repeat to fade...)


Tap to rate this tab
 
# A B C D E F G H I J K L M N O P Q R S T U V W X Y Z