Song name
# A B C D E F G H I J K L M N O P Q R S T U V W X Y Z

Status Quo - One Man Band tab

One Man Band Solo
Status Quo
Rock 'til You Drop 1991


2:09

h=hammer on
p=pull off
b=bend note
rb=release bent note
rb*=release very slowly
^=hold note until told
/=slide

   2:09
E|---------------------------8----------------8-8^^^^^-8-8-8-8-8-8--10b----|
B|---------8b-rb*---------8b^^^^^rb-8b-rb-6-5------------------------------|
G|-7b-rb-5--------7b-rb-5--------------------------------------------------|
D|-------------------------------------------------------------------------|
A|-------------------------------------------------------------------------|
E|-------------------------------------------------------------------------|
                           HUH!
E|----------------------------------------------------------------|
B|-16b-------------------------------------15-15b-----------16-18-|
G|-----17-17-17-17p15-----------------------------17-17--17-------|
D|--------------------17----------15----13------------------------|
A|-----------------------15\13-15----15---------------------------|
E|----------------------------------------------------------------|

E|-----------------------------------------------------------|
B|-18b-rb-18p16-18b-18b-18b-rb*-p16--------------------------|
G|----------------------------------17-17--17-17\15----------|
D|--------------------------------------------------17-15\13-|
A|-----------------------------------------------------------|
E|-----------------------------------------------------------|

Tap to rate this tab
# A B C D E F G H I J K L M N O P Q R S T U V W X Y Z