Song name
# A B C D E F G H I J K L M N O P Q R S T U V W X Y Z

Status Quo - Where I Am tab

Where I Am
Status Quo

REMARK: H = b

               5.    4.    3.    2.    1. <= frets
       -----|-----|-----|--X--|-----|-------| E
       -----|-----|--0--|--0)-|-----|-------| A
       -----|--0--|-----|--0)-|-----|-------| D
       -----|-----|-----|--0)-|-----|-------| G
       -----|--0--|-----|--0)-|-----|-------| H
       -----|-----|-----|--X--|-----|-------| E

                            C#dim

Intro:

  G    G     D11    D7     G			    G   C        G     C

e|------------------------|------------------------|------------------------|
b|------------------------|------------------------|-----31-----------------|
g|------------------------|0-----32----0-----------|--0------4---0----------|
d|0-----0-----2-----4-----|---------320------------|02----------------------|
a|------------------------|------------------------|------------------------|
e|------------------------|------------------------|------------------------|
							Let me know


  G    C       G     C	   G     C             G           C
e|------------------------|-------------------------------------------|
b|-----31-----------------|-------3---3---3---3---3---3---3---3---3---|
g|--0------4---0----------|-------------------------------------------|
d|02----------------------|-------------------------------------------|
a|------------------------|-------------------------------------------|
e|------------------------|-------------------------------------------|
       Let me see		 What is this thing that is constantly

  G7                       C           C#dim	       G
e|------------------------|---------------------------|------------------------|
b|3-1-0----1---0-----0----|---------------------------|0--0---3---0----2-------|
g|--------------------2-0-|0---0---2---4-2---0---2----|-------------------0----|
d|------------------------|---------------------------|------------------------|
a|------------------------|---------------------------|------------------------|
e|------------------------|---------------------------|------------------------|
  happening to me    yeah  'cos when you hold me tight oh how it feels so right


  D7        C         D11  G
e|------------------------|---------------------------|
b|----0---3--0------------|---------------------------|
g|-2-----------2--0-------|0-----32----0--------------|
d|--------------------2---|---------320---------------|
a|------------------------|---------------------------|
e|------------------------|---------------------------|
  yes and I know where I   am


Instrumental:

  G    C    G    C      G    C    G     C         G     C      G     C
e|_____________________|_________________________|____________________________|
b|_3_3_3_______________|_3_3_3___________________|_3_3_3_5p3_3_5p3_3_3________|
g|_______5_4___________|_______5_4_5p4___________|____________________5_4_5_4_|
d|___________5_________|_______________5_________|____________________________|
a|_____________________|_________________________|____________________________|
e|_____________________|_________________________|____________________________|

  G      C     C#dim     G                        D7       C  D11   G
e|_____________________|_________________________|____________________________|
b|_____________________|_________________________|____________________________|
g|4___________4________|4___4___7___4____________|______4_____________________|
d|___7__5_5_7___7_5____|________________7___5____|7__7_____7__5_____5_________|
a|_____________________|_________________________|_______________7____________|
e|_____________________|_________________________|____________________________|

Verse 2
If I should cry  let me cry
My tears are crying a lullaby
'Cos when I hold you tight
Oh how it feels so right
Yes and I know where I am

Verse 3
Changes in me  learning to be
Everything  that I just silently wanted to see
'Cos when I'm all alone
Everything that I own
Lets me know where I am

Outro:

  D7        C         D11  G
e|------------------------|---------------------------|
b|----0---3--0------------|---------------------------|
g|-------------2--0-------|0-----32----0--------------|
d|--------------------2---|---------320---------------|
a|------------------------|---------------------------|
e|------------------------|---------------------------|
     Give to me what you   can

  D7        C         D11  G
e|------------------------|---------------------------|
b|-0--0---3--0------------|---------------------------|
g|------------2---0-------|0-----32----0--------------|
d|---------------------2--|---------320---------------|
a|------------------------|---------------------------|
e|------------------------|---------------------------|
  Ill give to you what I    am
Tap to rate this tab
 
# A B C D E F G H I J K L M N O P Q R S T U V W X Y Z