Song name
# A B C D E F G H I J K L M N O P Q R S T U V W X Y Z

Status Quo - Youll Come Round tab

             You'll Come 'Round
               (Rossi/Young)

Guitar intro:
                                                   Dm                          C   
e|-------------------------------------------------------------------------------|
B|-------------------------------------------------------------------------------|
G|-------------------------------------------------------------------------------| 
D|-------3---------3---------3-------------------3---------3---------3-----------|
A|-----3---5-5-5-5---------3---5-5-5-5-3-------3---5-5-5-5---------3---5-5-5-5-3-|
E|-3h5-----------------3h5-----------------3h5-----------------3h5---------------|


           Dm                          C           Dm        
e|------------------------------------------------------------------------|
B|------------------------------------------------------------------------|
G|------------------------------------------------------------------------| 
D|-------3---------3---------3-------------------3------------------------|
A|-----3---5-5-5-5---------3---5-5-5-5-3-------3---5----------------------|
E|-3h5-----------------3h5-----------------3h5----------------------------|



verse:
F       C              Dm          Bb
When I see you looking so sad and lonely
F       C                  Dm  Bb-Bb-Bb-Bb-C
And I know you're feeling low
F    C              Dm         Bb
I remember you said I was the only
 Dm          Bb               C
Your one and only where that go


chorus:
              Dm
You'll come 'round when you're ready
                        C  
I'll keep on nice and steady
           Dm 
Don't get down don't you worry
                      C 
Just hang on why the hurry
           Dm
Take your time make it better
                     C
Take it down to the letter
              Dm
What's gone wrong don't you worry
                            C
You'll come 'round why the hurry
              Dm
You'll come 'round

1 round guitar intro

verse:
Can't you see that I won't get tired of waiting
I'll be here 'til you get through
If you find yourself just anticipating
I'm gonna wait and say to you

chorus:
You'll come 'round when you're ready
I'll keep on nice and steady
Don't get down don't you worry
Just hang on why the hurry
Take your time make it better
Take it down to the letter
What's gone wrong don't you worry
You'll come 'round why the hurry
              Bb
You'll come 'round

Guitar solo:
  
   Bb      C              Dm
e|-----------------------------------------|
B|-----------------------------------------|
G|-/12b14-12-10-12-10-12b14h10-------------| 
D|-----------------------------12-12-------|
A|-----------------------------------------|
E|-----------------------------------------|


   Bb      C          Dm
e|--------------------------------------13-------13---------|
B|-------------------13b15-13b15-13b15-----13b15----13b15---|
G|-/12b14-12-12p10------------------------------------------| 
D|----------------------------------------------------------|
A|----------------------------------------------------------|
E|----------------------------------------------------------|


   Bb      C              Dm
e|-----------------------------------------|
B|-----------------------------------------|
G|-/12b14-12-10-12-10-12b14h10-------------| 
D|-----------------------------12-12-10----|
A|-----------------------------------------|
E|-----------------------------------------|


   Bb      C           Dm
e|---------------------------------13-------13-------13-------13---------|
B|-------------------13b15--13b15-----13b15----13b15----13b15----13b15---|
G|-/12b14-12-12p10-------------------------------------------------------| 
D|-----------------------------------------------------------------------|
A|-----------------------------------------------------------------------|
E|-----------------------------------------------------------------------|


verse:
Now you know that I will be there forever
Maybe we can work it out
Don't you think it has to be now or never
we know what it's all about

chorus:
You'll come 'round when you're ready
I'll keep on nice and steady
Don't get down don't you worry
Just hang on why the hurry
Take your time make it better
Take it down to the letter
What's gone wrong don't you worry
You'll come 'round why the hurry
You'll come 'round
You'll come 'round
You'll come 'round
You'll come 'round

with guitar intro to fade...
Tap to rate this tab
# A B C D E F G H I J K L M N O P Q R S T U V W X Y Z