Guitaretab - guitar tabs
Song name
# A B C D E F G H I J K L M N O P Q R S T U V W X Y Z

Status Quo - Spinning Wheel Blues tab

Spinning Wheel Blues
Status Quo
Ma Kelly's Greasy Spoon 1970
Greg Harper  quorockergreg@hotmail.com

A Rossi classic! One of the best he has written.
If you have MSN I'll send it to you!
The chords for the entire song are just:
1 4 5
G C D

It's the solo that does it for me.
It has also been requested by many to me
and I have finally got around to it.
Here's your solo chaps!

E|-15-13-15-13-15-13-15-13-15-13-15-13-15-13-15-13-15-13-15-13-15-13-15-----|
B|--------------------------------------------------------------------------|
G|--------------------------------------------------------------------------|
D|--------------------------------------------------------------------------|
A|--------------------------------------------------------------------------|
E|--------------------------------------------------------------------------|

E|-13-15-13-15-13-15-13-15-17b-17b-17b--------------------------------------|
B|-------------------------------------18-18-18-18-18-15--------------------|
G|-------------------------------------------------------18-17----15-17-15--|
D|-------------------------------------------------------------17-----------|
A|--------------------------------------------------------------------------|
E|--------------------------------------------------------------------------|

E|------------------------------------------------------10-8-6-8-6-8-6-8----|
B|-----------------------------------6(blue note)---------------------------|
G|---------------------------7-7-7-7--------------7-6-5---------------------|
D|-17p15-17-----------------------------------------------------------------|
A|----------17--17-15-------------------------------------------------------|
E|--------------------18--15------------------------------------------------|
[ Tab from: http://www.guitaretab.com/s/status-quo/68384.html ]
E|-7---------------10---10---10---------6-8p6-8p6-8p6-------6(blue note)----|
B|---8---8------------------------8-8-8---------------8p6-8-------------6h7-|
G|-----9---5-6-7-7----7----7----7-------------------------------------------|
D|--------------------------------------------------------------------------|
A|--------------------------------------------------------------------------|
E|--------------------------------------------------------------------------|

E|---6(blue note)-10-10-10p9p8-----------------10p9p8-----------------10p9p8-|
B|-8---------------------------11(blue note)-8--------11(blue note)-8--------|
G|---------------------------------------------------------------------------|
D|---------------------------------------------------------------------------|
A|---------------------------------------------------------------------------|
E|---------------------------------------------------------------------------|

E|-----------------10p9p8---------------8-----------------------------------|
B|-11(blue note)-8--------11(blue note)---11-8---8--------------------------|
G|---------------------------------------------9-----------12----10---------|
D|-------------------------------------------------12p10-9----12----12------|
A|--------------------------------------------------------------------------|
E|--------------------------------------------------------------------------|
                                             *
E|----------------------10-10-8----8-8--------------------------------------|
B|------------------------------11-----8---8-8------------------------------|
G|-12p11p10------------------------------9---8------------------------------|
D|----------12-11-10-12-----------------------------------------------------|
A|--------------------------------------------------------------------------|
E|--------------------------------------------------------------------------|
                                             *
E|----------------------------------------|
B|-10-10-10-10-10-10-10-10-10-10-10-10----|
G|-11-11-11-11-11-11-11-11-11-11-11-11-12-|
D|-------------------------------------12-|
A|----------------------------------------|
E|----------------------------------------|
        .
It's 99.9 correct.  I'm not sure about one note.
I have marked it with a '*',
if you know what it is please let me know.  Good Luck!
Related for Spinning Wheel Blues tab
Advertisement will be closed in 10 seconds