Song name
# A B C D E F G H I J K L M N O P Q R S T U V W X Y Z

Status Quo - Unspoken Words tab

Unspoken Words
Status Quo
Piledriver 1972



                               BU  BD Po                 Po 
E|------------------13------15--15--13----------13--------------|
B|------13--15--15----------------------15--15------15--13------|
G|-/14------------------14----------------------------------14--|
D|--------------------------------------------------------------|
A|--------------------------------------------------------------|
E|--------------------------------------------------------------|

          Po                            BU  BU  BU  
E|--13--------------------------13--15--15--15--15--15------13--|
B|------15--13----------13--15--------------------------15------|
G|--------------14--14------------------------------------------|
D|--------------------------------------------------------------|
A|--------------------------------------------------------------|
E|--------------------------------------------------------------|

    BU  BU  BU  BD                    Po                  H
E|--15--15--15--15--------------13------------------------------|
B|------------------15--15--15------15--13----------------------|
G|------------------------------------------14--13--12--10--11--|
D|--------------------------------------------------------------|
A|--------------------------------------------------------------|
E|--------------------------------------------------------------|

  (Hold)       H   (Hold) H      H               H  Po     
E|--------------------------------------------------------------|
B|------7--7--------------------------7--9--10--7--9--7-----7---|
G|--7---7--7--7--9--------------8--9---------------------8------|
D|------7--7--------9---9--11---------------------------------9-|
A|--------------------------------------------------------------|
E|--------------------------------------------------------------|
       H       H           H       H           H       H
E|--------------------------------------------------------------|
B|----------12--14--15----------12--14--15----------12--14--15--|
G|--12--13--------------12--13--------------12--13--------------|
D|--------------------------------------------------------------|
A|--------------------------------------------------------------|
E|--------------------------------------------------------------|

      H       H         Sl          Sl      Sl  BU  BD 
E|----------------------12--12--12--12--12--12--14--14--12--10--|
B|----------12--14--15--12----------12------12------------------|
G|--12--13------------------------------------------------------|
D|--------------------------------------------------------------|
A|--------------------------------------------------------------|
E|--------------------------------------------------------------|
     

Not mine.
    
                                                  
           
Tap to rate this tab
# A B C D E F G H I J K L M N O P Q R S T U V W X Y Z