Song name
# A B C D E F G H I J K L M N O P Q R S T U V W X Y Z

Status Quo - Something Bout You Baby I Like tab

Song: Somethig About You Baby...
By: Status Quo
Album: Loads But First On Never Too Late 1981
Tabbed By: Greg Harper quorockergreg@hotmail.co.uk

I Won't Tab The Verses 'cos It's Been Done Already

Introduction
E|----------------------------------------------------------------------|
B|-5--3---5--3--------------------------5--3--5-------------------------|
G|-5--4---5--4--------------------------5--4--6-------------------------|
D|-5--5---5--5--7--9--7--9--7--9--7--9--5--5--7--7--9--7--9--7--9--7--9-|
A|-3--5---3--5--5--5--5--5--5--5--5--5--3--5--7--5--5--5--5--5--5--5--5-|
E|-3--3---3--3--------------------------3--3--5-------------------------|
                            or
E|-3--3---3--3-------------------------|
B|-3--3---3--3-------------------------|
G|-5--4---5--4-------------------------|
D|-3--5---3--5--7--9--7--9--7--9--7--9-|
A|-5--5---5--5--5--5--5--5--5--5--5--5-|
E|-3--3---3--3-------------------------|
                           or
E|-------------------------------------|
B|-1--0---1--0-------------------------|
G|-0--0---0--0--7--9--7--9--7--9--7--9-|
D|-2--0---2--0--5--5--5--5--5--5--5--5-|
A|-------------------------------------|
E|-------------------------------------|

Any way should do.

Solo

E|-10--------10--------10-10---------------|
B|-10--------10--------10-10---------------|
G|----12b14-----12b14---------12b14--------|
D|-----------------------------------------|
A|-----------------------------------------|
E|-----------------------------------------|

E|-10----------------------------------|
B|-10----------------------------------|
G|----12-10----------------------------|
D|----------12-10-----12~--------------|
A|-----------------12------------------|
E|-------------------------------------|
Tap to rate this tab
# A B C D E F G H I J K L M N O P Q R S T U V W X Y Z