Song name
# A B C D E F G H I J K L M N O P Q R S T U V W X Y Z

Status Quo - All We Really Wanna Do Polly tab

Help us improve GuitareTab! Take a short survey!
PLEASE NOTE
This file is the author's own work and represents their interpretation of the
song. You may only use this file for private study, scholarship, or research.

Status Quo - All We Really Wanna Do (Polly). Tabbed by Jura Bartonek (Jago syn Jungle)
Czech Republic. 04.04.2006
PLEASE RATE ME :)
I think this is 100% right!!! But you must use your improvization abilities,if you dont
play only rythm guitar...Its great for improvization...:) ROCK on
You can look on my hard-rock group 15:31 :) www.15-31.wbs.cz

Standart tuning   Cismol - Edur

  Intro Lead guitar
e[-------------------------/9-----7-8-9-7-8-9--12*10*9-----------------------------------------------12-15-/19-17-15-15-12----------------------------------]
B[--/9-/9-7-5--5--/9-/9------5-5----------------------12*10*9------------------9---------------12-15----------------------15-12-----------------------------]
G[------------6-6---------------------------------------------11*10*9-----9-11-------------------------------------------------14-10-9-------------4-4-4-4--]
D[----------------------------------------------------------------------11------------------------------------------------------------12-9---------4-4-4-4--]
A[-------------------------------------------------------------------------------4*6*7-7-4//----------------------------------------------12-10//--2-2-2-2--]
E[----------------------------------------------------------------------------------------------------------------------------------------------------------]

  Rythm guitar
  Verse 1   2x
e[-----------------------------------------------------------------------]
B[-----------------------------------------------------------------------]
G[-----------------------------------------------------------------------]
D[-----------------2-2-4-2-2-2-4-2---------------------------------------]
A[-2-2-4-2-2-2-4-2-0-0-0-0-0-0-0-0-2-2-4-2--2-2-4-2-2-2-4-2--2-2-4-2-----]
E[-0-0-0-0-0-0-0-0-----------------0-0-0-0--0-0-0-0-0-0-0-0--0-0-0-0-----]

e[--------------------------------------------------------------]
B[---------------13---------------------------------------------]
G[-------9------/half-11-9---11-9---I use here My mprovization--]
D[--9/11--11//-------------11------11--11-9----9----------------]
A[------------------------------------------11----11-9-7--------]
E[--------------------------------------------------------------]
                     2x                            before chorus 2x
e[--------------------------------------*-------------------------------------]
B[--------------------------------------*-------------------------------------]
G[--------------------------------------*----6-6--2-2--4-4-4-4----------------]
D[--------------------------------------*----6-6--2-2--4-4-4-4----------------]
A[--7-7-9-7--7-7-9-7--9-9-11-9-9-9-11-9-*----4-4--0-0--2-2-2-2----------------]
E[--5-5-5-5--5-5-5-5--7-7-7--7-7-7-7--7-*-------------------------------------]

   CHORUS:  Repeat
e[-----------------------------------------------------------------------]
B[-----------------------------------------------------------------------]
G[-------------------------------------------------7-7-------------------]
D[-------------------------------------------------7-7-------------------]
A[--2-2-4-2-2-2-4-2--9-9-11-9--9-9-11-9--7-7-9-7---5-5-------------------]
E[--0-0-0-0-0-0-0-0--7-7-7--7--7-7-7--7--5-5-5-5-------------------------]
Related for All We Really Wanna Do Polly tab