Song name
# A B C D E F G H I J K L M N O P Q R S T U V W X Y Z

Status Quo - What Youre Proposin tab

Help us improve GuitareTab! Take a short survey!
What You're Proposin'
Status Quo
Just Supposin' 1980


"Harmony solo"
12/8 - change to 6/8 in bar 8 
and back to 12/8 for bar 9.

  Gtr.1
E|--------------|-------------|
B|----14b-rb-12-|-11----------|
G|-11-----------|----13-13-11-|
D|--------------|-------------|
A|--------------|-------------|
E|--------------|-------------|
  ____________________________ x2

E|--------------|-----------|
B|----14b-rb-12-|-11--------|
G|-11-----------|----13-13~-|
D|--------------|-----------|
A|--------------|-----------|
E|--------------|-----------|

E|----------|----|----------|
B|----------|----|----------|
G|-13/15-15-|-13-|-13-15-13-|
D|----------|----|----------|
A|----------|----|----------|
E|----------|----|----------|

E|------------------------|
B|------13----14----13----|
G|-13---------------------|
D|----13---13----13----13-|
A|------------------------|
E|------------------------|
  ________________________ x3

E|---------|
B|---------|
G|-13------|
D|---------|
A|---------|
E|---------|



  Gtr.2
E|----12b-rb-10-|-9----------|
B|-11-----------|---12-12-10-|
G|--------------|------------|
D|--------------|------------|
A|--------------|------------|
E|--------------|------------|
  ___________________________ x2

E|----12b-rb-10-|-9--------|
B|-11-----------|---12-12~-|
G|--------------|----------|
D|--------------|----------|
A|--------------|----------|
E|--------------|----------|

E|----------|----|----------|
B|-12/14-14-|-12-|-12-14-12-|
G|----------|----|----------|
D|----------|----|----------|
A|----------|----|----------|
E|----------|----|----------|

E|-------11----13----11----|
B|-13----------------------|
G|----13----13----13----13-|
D|-------------------------|
A|-------------------------|
E|-------------------------|
  _________________________ x3

E|---------|
B|-13------|
G|---------|
D|---------|
A|---------|
E|---------|



Chords: |B| |G#m| |B| |G#m|
        
        |B| |G#m| |E F#| |F#|

        |E F#| |Ab| |Ab| |Ab| |Ab n.c|

Related for What Youre Proposin tab