Song name
# A B C D E F G H I J K L M N O P Q R S T U V W X Y Z

Status Quo - What Ever You Want tab

Whatever You Want
Status Quo
Whatever You Want 1979
Greg Harper    quorockergreg@hotmail.co.uk

Now thanks to my mate Ant for his small conribution 
to the 'D' part.
It's Francis line as simple as it will go-
but it works!  Drop D tuning.

   D                                                  A
E|-33322-------33322-------333223332233322-------3332-0-0-0-3322-5-33322|
B|-33333-------33333-------333333333333333-------3333-2-2-2-3333-2-33333|
G|-22222-------22222-------222222222222222-------2222-2-2-2-2222-2-22222|
D|----------------------------------------------------2-2-2------2------|
A|----------------------------------------------------0-0-0------0------|
D|-------00-00-------00-00-----------------00-00------------------------|

Here's the proper version:
(Standard tuning 'cos Rick is in Dropped D)
E|----------------------------------|
B|-8-8-7-7-7--8-8-7-7-7--8-8-7-7-7--|
G|-7-7-7-7-7--7-7-7-7-7--7-7-7-7-7--|
D|-9-9-7-7-7--9-9-7-7-7--9-9-7-7-7--|
A|----------------------------------|
E|----------------------------------|
Then play as above.
Tap to rate this tab
 
# A B C D E F G H I J K L M N O P Q R S T U V W X Y Z