Song name
# A B C D E F G H I J K L M N O P Q R S T U V W X Y Z

Status Quo - Saddlin Up tab

Help us improve GuitareTab! Take a short survey!
Saddlin' Up
Status Quo
Search Of The Fourth Chord 2007



Great sound from Rossi here.
Reminds me of Big Fat Mama.

E|--------------------------------------|
B|-13b-13-12--------13b-13-12-------15b-|
G|-----------14-12------------14-12-----|
D|--------------------------------------|
A|--------------------------------------|
E|--------------------------------------|

E|------------------------------------------|
B|-13b-13-12--------13b-13-12---------------|
G|------------14-12------------14-12-12b----|
D|------------------------------------------|
A|------------------------------------------|
E|------------------------------------------|

Bass:

G|-----------------|
D|-----------------|
A|-0-3-0-3-0-3-0-3-|
E|-----------------|
Related for Saddlin Up tab