Song name
# A B C D E F G H I J K L M N O P Q R S T U V W X Y Z

Status Quo - Power Of Rock tab

Power of Rock
Status Quo
Perfect Remedy 1989
Sam Singleton


The lead guitar reminds me so much of "4500 Times".
Same key too!
What is it with Quo REALLY ROCKING in B?

|B| |B|

E|----------------------------------------------------|
B|-7-5-4-------4b-rb---4--------5-4h5p4-----------4h5-|
G|-------6-4h6-------6---6-4h6----------6-4---4h6-----|
D|------------------------------------------6---------|
A|----------------------------------------------------|
E|----------------------------------------------------|

E|--------------------------------------------|
B|-7-5-4-------4b-rb---4--------5-4h5p4-------|
G|-------6-4h6-------6---6-4h6----------4-4/6-|
D|--------------------------------------------|
A|--------------------------------------------|
E|--------------------------------------------|

Tap to rate this tab
 
# A B C D E F G H I J K L M N O P Q R S T U V W X Y Z