Song name
# A B C D E F G H I J K L M N O P Q R S T U V W X Y Z

Status Quo - Gravy Train tab

Gravy Train
Status Quo
In Search Of The Fourth Chord 2007


Reminds me of RHCP.

  Intro
E|------------------------------------------------|
B|------------------------------------------------|
G|------------------------------------------------|
D|-9-9-9-12----14--9-9-9-12----14--9-9-9-12----14-|
A|-9-9-9-12----14--9-9-9-12----14--9-9-9-12----14-|
E|-7-7-7-10-10-12--7-7-7-10-10-12--7-7-7-10-10-12-|
  TIP - Are you hearing more than is written?
        If so, play strummed mutes 'cos that's 
        what they are!

E|--------------------|
B|--------------------|
G|--------------------|
D|-9-9-9-11-11-11-9-7-|
A|-9-9-9-9--9--9--7-5-|
E|-7-7-7--------------|



Tap to rate this tab
# A B C D E F G H I J K L M N O P Q R S T U V W X Y Z