Song name
# A B C D E F G H I J K L M N O P Q R S T U V W X Y Z

Status Quo - Youre The One For Me tab

Tabbed By: Belavista Man
On: 24/09/07
E-mail: anthonybentley@hotmail.co.uk

You're The One For Me (intro) by Status Quo:

e|--------------------------|
B|--------------------------|
G|-----------3b-------------| Play three times
D|---3-h4-h5----5-5-3-3-5-5-|
A|-5------------------------|
E|--------------------------|

Then play:
e|--------------------------|
B|--------------------------|
G|---------------------/12~-|
D|-3-3-5-5-3-3-5-5-3---/12~-|
A|-1-1-3-3-1-1-3-3-1--------|
E|-------------------3------|

NOTE: The notes on 12 are played with a slide.

This is played all the wayt through twice, but the second time around, the rhthym
guitar comes in with:

Part one:
e|---------------------------------|
B|---------------------------------|
G|---------------------------------| Play three times
D|-------------------3---3---5---5-|
A|---5---5---5---5-1---1---3---3---|
E|-3---3---3---3-------------------|

Part two:
e|---------------------------------------------------------|
B|---------------------------------------------------------|
G|---------------------------------------------------------|
D|---3---3---5---5---3---3---5---5---3---3-----------------|
A|-1---1---3---3---1---1---3---3---1---1-----5---5---5---5-|
E|-----------------------------------------3---3---3---3---|
Tap to rate this tab
# A B C D E F G H I J K L M N O P Q R S T U V W X Y Z