Staut - Its Over tab

intro:

 Danny: clean
|-----------------|
|-----------------|
|-----------------|
|---9----5--7-----| x2
|---9----5--7-----|
|---9----5--7-----|

verse:

Danny: clean
|-----------------|
|-----------------|
|-----------------|
|---9----5--7-----| x14
|---9----5--7-----|
|---9----5--7-----|

Sam: overdrive 
|------------------------------------------|
|------------------------------------------|
|-------11---12---9-11------7---9---6-7----|
|-----9----9----9---------5---5---5--------| x4   
|---9-------------------5------------------|
|------------------------------------------|

Sam: overdrive 
|---------------------------------------|
|---------------------------------------|
|--------11-----11------7--------9------|
|------9----9---------5---5----7---7----| x4
|----9--------9-----5--------7----------|
|---------------------------------------|

Sam: overdrive 
|------------------------------------------|
|------------------------------------------|
|-------11---12---9-11------7---9---6-7----|
|-----9----9----9---------5---5---5--------| x2   
|---9-------------------5------------------|
|------------------------------------------|

Danny: distortion
|------------------------------------------|
|------------------------------------------|
|------------------------------------------|
|-----------------------5-5-5-5--7-7-7-----|
|-----------------------5-5-5-5--7-7-7-----|
|-----------------------5-5-5-5--7-7-7-----|

Chorus:

Sam and Danny: distortion
|--------------------------------------------------------------------------|
|--------------------------------------------------------------------------|
|--------------------------------------------------------------------------|
|--9-9-9-9-9-9-9-9--5-5-5-5--4-4-4-4--9-9-9-9--7-7-7-7--5-5-5-5--7-7-7-7---|
|--9-9-9-9-9-9-9-9--5-5-5-5--4-4-4-4--9-9-9-9--7-7-7-7--5-5-5-5--7-7-7-7---|
|--9-9-9-9-9-9-9-9--5-5-5-5--4-4-4-4--9-9-9-9--7-7-7-7--5-5-5-5--7-7-7-7---|

|--------------------------------------------------------------------------|
|--------------------------------------------------------------------------|
|----------------------------------------------7-7-7-7---------------------|
|--9-9-9-9-9-9-9-9--5-5-5-5--7-7-7-7--9-9-9-9--7-7-7-7--5-5-5-5--7-7-7-7---|
|--9-9-9-9-9-9-9-9--5-5-5-5--7-7-7-7--9-9-9-9--5-5-5-5--5-5-5-5--7-7-7-7---|
|--9-9-9-9-9-9-9-9--5-5-5-5--7-7-7-7--9-9-9-9-----------5-5-5-5--7-7-7-7---|

Instrumental:

Danny: distortion
|---------------------------------------|
|---------------------------------------|
|---------------------------------------|
|--9-9-9-9-9-9-9-9--5-5-5-5--7-7-7-7----| x2
|--9-9-9-9-9-9-9-9--5-5-5-5--7-7-7-7----|
|--9-9-9-9-9-9-9-9--5-5-5-5--7-7-7-7----|

Sam: distortion
|--------------------------------------------------------------|
|--------------------------------------------------------------|
|--11-11-11-11---12-12-12-12--9--11--7-7-7-7--9-9-9-9--6--7----|
|--x--x--x--x----x--x--x--x---x--x---x-x-x-x--x-x-x-x--x--x----| x2
|--9--9--9--9----10-10-10-10--7--9---5-5-5-5--7-7-7-7--4--5----|
|--------------------------------------------------------------|

Verse:

Sam and Danny: distortion
|---------------------------------|
|---------------------------------|
|---------------------------------|
|--9999-9--9999-9--5555-5--7777-7-| x4
|--9999-9--9999-9--5555-5--7777-7-|
|--9999-9--9999-9--5555-5--7777-7-|

Danny: distortion
|---------------------------------------|
|---------------------------------------|
|---------------------------------------|
|--9-9-9-9-9-9-9-9--5-5-5-5--7-7-7-7----| 
|--9-9-9-9-9-9-9-9--5-5-5-5--7-7-7-7----|
|--9-9-9-9-9-9-9-9--5-5-5-5--7-7-7-7----|

Sam: distortion 
|------------------------------------------|
|------------------------------------------|
|-------11---12---9-11------7---9---6-7----|
|-----9----9----9---------5---5---5--------|    
|---9-------------------5------------------|
|------------------------------------------|

Chorus:

Sam and Danny: distortion
|--------------------------------------------------------------------------|
|--------------------------------------------------------------------------|
|--------------------------------------------------------------------------|
|--9-9-9-9-9-9-9-9--5-5-5-5--4-4-4-4--9-9-9-9--7-7-7-7--5-5-5-5--7-7-7-7---|
|--9-9-9-9-9-9-9-9--5-5-5-5--4-4-4-4--9-9-9-9--7-7-7-7--5-5-5-5--7-7-7-7---|
|--9-9-9-9-9-9-9-9--5-5-5-5--4-4-4-4--9-9-9-9--7-7-7-7--5-5-5-5--7-7-7-7---|

|--------------------------------------------------------------------------|
|--------------------------------------------------------------------------|
|----------------------------------------------7-7-7-7---------------------|
|--9-9-9-9-9-9-9-9--5-5-5-5--7-7-7-7--9-9-9-9--7-7-7-7--5-5-5-5--7-7-7-7---|
|--9-9-9-9-9-9-9-9--5-5-5-5--7-7-7-7--9-9-9-9--5-5-5-5--5-5-5-5--7-7-7-7---|
|--9-9-9-9-9-9-9-9--5-5-5-5--7-7-7-7--9-9-9-9-----------5-5-5-5--7-7-7-7---|

Instrumental:

Danny: distortion
|---------------------------------------|
|---------------------------------------|
|---------------------------------------|
|--9-9-9-9-9-9-9-9--5-5-5-5--7-7-7-7----| x2
|--9-9-9-9-9-9-9-9--5-5-5-5--7-7-7-7----|
|--9-9-9-9-9-9-9-9--5-5-5-5--7-7-7-7----|

Sam: distortion
|--------------------------------------------------------------|
|--------------------------------------------------------------|
|--11-11-11-11---12-12-12-12--9--11--7-7-7-7--9-9-9-9--6--7----|
|--x--x--x--x----x--x--x--x---x--x---x-x-x-x--x-x-x-x--x--x----| x2
|--9--9--9--9----10-10-10-10--7--9---5-5-5-5--7-7-7-7--4--5----|
|--------------------------------------------------------------|

Bridge:

Sam: overdrive
|---------------------------------------|
|---------------------------------------|
|--------11-----11------7--------9------|
|------9----9---------5---5----7---7----| x2
|----9--------9-----5--------7----------|
|---------------------------------------|

Danny: distortion
|---------------------------------------|
|---------------------------------------|
|---------------------------------------|
|--9-9-9-9-9-9-9-9--5-5-5-5--7-7-7-7----| x2
|--9-9-9-9-9-9-9-9--5-5-5-5--7-7-7-7----|
|--9-9-9-9-9-9-9-9--5-5-5-5--7-7-7-7----|

Sam: overdrive 
|------------------------------------------|
|------------------------------------------|
|-------11---12---9-11------7---9---6-7----|
|-----9----9----9---------5---5---5--------| x2   
|---9-------------------5------------------|
|------------------------------------------|

Chant:ohhh ohhhh ohh ohh

Chorus:

Sam and Danny: distortion
|-------------------------------------------------|
|-------------------------------------------------|
|-------------------------------------------------|
|--0----8-8--10-10--0-0--0----8-8-8-8-10-10-10----|
|--0----8-8--10-10--0-0--0----8-8-8-8-10-10-10----|
|--0----8-8--10-10--0-0--0----8-8-8-8-10-10-10----|

Sam and Danny: distortion
|------------------------------------------|
|------------------------------------------|
|------------------------------------------|
|--0-0-0-0-0-0-0-0--8-8-8-8--10-10-10-10---| x6
|--0-0-0-0-0-0-0-0--8-8-8-8--10-10-10-10---|
|--0-0-0-0-0-0-0-0--8-8-8-8--10-10-10-10---|

Danny: distortion
|------------------------------------------|
|------------------------------------------|
|------------------------------------------|
|--0-0-0-0-0-0-0-0--8-8-8-8--10-10-10-10---| x3
|--0-0-0-0-0-0-0-0--8-8-8-8--10-10-10-10---|
|--0-0-0-0-0-0-0-0--8-8-8-8--10-10-10-10---|

Sam: distortion
|--------------------------------------|
|--------------------------------------|
|--14-14-14-14--15-15-15-15--12--14----|
|--x--x--x--x---x--x--x--x---x---x-----|
|--12-12-12-12--13-13-13-13--10--12----|
|--------------------------------------|

Sam and Danny: distortion
|------------------------------------------------------------------|
|------------------------------------------------------------------|
|------------------------------------------------------------------|
|--0-0-0-0-0-0-0-0--8-8-8-8--10-10-10-10--8-8--10-10--8-8--10-10---| 
|--0-0-0-0-0-0-0-0--8-8-8-8--10-10-10-10--8-8--10-10--8-8--10-10---|
|--0-0-0-0-0-0-0-0--8-8-8-8--10-10-10-10--8-8--10-10--8-8--10-10---|


myspace.com/statband

facebook.com/statband
Tap to rate this tab
 
# A B C D E F G H I J K L M N O P Q R S T U V W X Y Z