Song name
# A B C D E F G H I J K L M N O P Q R S T U V W X Y Z

Steam Powered Giraffe - Honey Bee chords

Standard tuning
--> Capo 1st fret

This is my first tab, i only changed the chords to read ebgdae not eadgbe borrowed
from @christianenc

DarkSideoftheBob

Chords-

       C        Dm        Am      Em     Em*    Cadd9       F
e--|--(0)--|----1----|---0----|--(0)--|--(0)--|--(0)--|----(0)------|
B--|---1---|---3----|---0---|---0---|---1---|---2---|---1-----------|
G--|---0---|---2----|---0---|---0---|---0---|---0---|---2-----------|
D--|---2---|---0----|---2---|---2---|---2---|---2---|---3-----------|
A--|---3---|---0----|---2---|---3---|---2---|---3---|---3-----------|
E--|--(0)---|--(0)----|--(0)--|--(0)--|---(0)----|--(0)--|---(0)----|



(Intro)

e--|---------3---3---|-----------------|---------------|------------------|  (3x)
B--|-------1---1---1-|-------0----0----|-------1---1---|-------1---1------|
G--|-----0-----------|-----0--------0--|-----0-------0-|-----0-------0----|
D--|---2-------------|---2------2------|---2-----2-----|---2-----2--------|
A--|-3---------------|-2---------------|-0-------------|-3----------------|
E--|-----------------|------------------|---------------|-----------------|


                    (Down/Up Strokes)        v ^ v ^
e--|---------3---3---|----------------|-----------------|---------------------|
B--|-------1---1---1-|-------0---0----|-------1---1----|----1--1-1-1-1--------|
G--|-----0-----------|-----0---2---0--|-----0-------0--|----0--0-0-0-0--------|
D--|---2-------------|---2------------|---2-----2------|----2--2-2-2-2--------|
A--|-3---------------|-2--------------|-0--------------|----3--3-3-3-3--------|
E--|-----------------|----------------|----------------|----------------------|


C
You didn't have to look my way
C
Your eyes still haunt me to this day
Dm                    C
But you did. Yes, you did

C
You didn't have to say my name
C
Ignite my circuits and start a flame
Dm
But you did

Am                      Em
Oh, Turpentine erase me whole
          Am                          Em
(Cause I) don't want to live my life alone
         F                          (Let it ring)
(Well I) was waiting for you all my life
Cadd9
Oh
Cmaj7
How I
     (Cool snake noise)
Set me free, my...
      C      Em*     Am      F
Ho-ney-Beeeeeeeeeeeeeeeeeeeeeeeeeee
      C      Em*     Am      F
Ho-ney-Beeeeeeeeeeeeeeeeeeeeeeeeeee

C
You didn't have to smile at me
C
Your grin's the sweetest that I've ever seen
Dm                   C
But you did. Yes you did

C
You didn't have to offer your hand
C
Cause since I've kissed it I am at your command
Dm
But you did

Am                      Em
Oh, Turpentine erase me whole
          Am                    Em
(I don't) want to live my life alone
        F                      (Let it ring)
(I was) waiting for you all my life
Cadd9
Oh
Cmaj7
Why

Set me free, my...

      C      Em*     Am      F
Ho-ney-Beeeeeeeeeeeeeeeeeeeeeeeeeee
      C      Em*     Am      F
Ho-ney-Beeeeeeeeeeeeeeeeeeeeeeeeeee


C
Hello Goodbye, Twas nice to know you
Em
How I find myself without you
Am              F
That I'll never know
Am           F
I let myself go

C
Hello Goodbye, I'm rather crazy
Em
And I never thought I was crazy
Am            F
But what do I know?
Am              F
Now you have to go

      C      Em*     Am      F
Ho-ney-Beeeeeeeeeeeeeeeeeeeeeeeeeee
      C      Em*     Am      F
Ho-ney-Beeeeeeeeeeeeeeeeeeeeeeeeeee


C
Hello Goodbye, Twas nice to know you
Em
How I find myself without you
Am              F
That I'll never know
Am           F
I let myself go

C
Hello Goodbye, I'm rather crazy
Em
And I never thought I was crazy
Am            F
But what do I know?
Am              F
Now you have to go

      C      Em*     Am      F
Ho-ney-Beeeeeeeeeeeeeeeeeeeeeeeeeee
      C      Em*     Am      F
Ho-ney-Beeeeeeeeeeeeeeeeeeeeeeeeeee


C
Hello Goodbye, Twas nice to know you
Em
How I find myself without you
Am              F
That I'll never know
Am           F
I let myself go

C
Hello Goodbye, I'm rather crazy
Em
And I never thought I was crazy
Am            F
But what do I know?
Am              F
Now you have to go

      C      Em*     Am      F
Ho-ney-Beeeeeeeeeeeeeeeeeeeeeeeeeee
      C      Em*     Am      F
Ho-ney-Beeeeeeeeeeeeeeeeeeeeeeeeeee

(Acapella Part -- no guitar)

Hello Goodbye, Twas nice to know you
How I find myself without you
Hello Goodbye, I'm rather crazy
And I never thought I was crazy

That I'll never know.
I let myself go.
But what do I know?
Now you have to go.
Tap to rate this tab
# A B C D E F G H I J K L M N O P Q R S T U V W X Y Z