Song name
# A B C D E F G H I J K L M N O P Q R S T U V W X Y Z

Steam Powered Giraffe - Clockwork Vaudeville tab

Tabbed by:  Leelawd
Email: leelawd123@gmail.com

Tuning:  Standard

  C           Am         C 
e|-------------------------------------------|
B|-------------------------------------------|
G|------0----------2----------0h2-0---0------|
D|----2---2------2---2------2-------2---2----|
A|-3----------0----------3-------------------|
E|-------------------------------------------|

  C           Am         C
e|-------------------------------------------|
B|-------------------------------------------|
G|------0----------2----------0h2-0---0------|
D|----2---2------2---2------2-------2--------|
A|-3----------0----------3-------------------|
E|-------------------------------------------|

C Am F G x4
Tap to rate this tab
 
# A B C D E F G H I J K L M N O P Q R S T U V W X Y Z