Song name
# A B C D E F G H I J K L M N O P Q R S T U V W X Y Z

Steam - Na Na Hey Hey Kiss Him Goodbye tab

"Na Na Hey Hey Kiss Him Goodybye" - Steam

Tabbed by: Brandon Lunt

Tuning: Standard


Version 1:
e|-------------------------------------------------------------------------|
B|-------------------------------------------------------------------------|
G|---3-5-5---5-7-8-8---12-10-7--7\3-5~-------------------------------------|
D|-5-3-5-5---5-7-8-8---12-10-7--7\3-5~-------------------------------------|
A|-5-1-3-3---3-5-6-6---10-8--5--5\1-3~-------------------------------------|
E|-3-----------------------------------------------------------------------|

Version 2:
e|-------------------------------------------------------------------------|
B|---------------4-4---8--6------------------------------------------------|
G|---3-5-5---5-7-------------7--7\3-5~-------------------------------------|
D|-5-----------------------------------------------------------------------|
A|-------------------------------------------------------------------------|
E|-------------------------------------------------------------------------|

Tap to rate this tab
 
# A B C D E F G H I J K L M N O P Q R S T U V W X Y Z