Song name
# A B C D E F G H I J K L M N O P Q R S T U V W X Y Z

Steel Attack - Judgement Day tab

this is just the first twenty seconds or so of the intro. im too lazy to figure out the 
song. hope you feel it's right. here is steel attack's website http://www.steelattack.com/

e--------------------------------------------------------------------------|
B--------------------------------------------------------------------------|
G--------------------------------------------------------------------------|
D--------------------------------------------------------------------------|
A--9~~---9-7-------------0------5-5~~~---9~~---9-7-------------0----2-4-5--|
E--7~~-------10-9-7-9-10---10---3~~~~~---7~~-------10-9-7-9-10---10~3-5-7--|


------------------------------------------------------------------------------|
------------------------------------------------------------------------------|
------------------------------------------------------------------------------|
-------------------4-2-0-4~--4-0----2~~---------------------------------------|
-5-5-5-4-2-4~~--4-4---------------2---4-4-5-2---------------------------------|
------------------------------------------------------------------------------|
Tap to rate this tab
# A B C D E F G H I J K L M N O P Q R S T U V W X Y Z