Steel Attack - Judgement Day tab

Artist: Steel Attack
Title:  Judgment Day
Album:  Fall Into Madness
Transcribed by Roger H. Beck (July 10, 2001)
e-mail address: roger_h_beck@hotmail.com

Standard tuning


Intro
Riff 1 (2x)
                                    1st end.  2nd ending
e(--------------------------------(---------)--------------)
B(--------------------------------(---------)--------------)
G(------11-9-----------------7=---(----7=---)--------------)
D(---9=------12-11-9-11-12-7------(-/5------)-9=-11=-12=---)
A(-------9-7-----------------5=---(----5=---)--------------)
E(---7=------10--9-7--9-10-5------(-/3------)-7=--9=-10=---)


Riff 1 addition

e(-----------------------------------------------------------------)
B(-----------------------------------------------------------------)
G(----------------------------11-9-7-11=---11=-7---9=---9=-6-7-6---)
D(---12=-12-12-11-9-11=---11=--------------------9-----------------)
A(-----------------------------9-7-5--9=----9=-5---7=---7=-4-5-4---)
E(---10=-10-10--9-7--9=----9=--------------------7-----------------)


Riff 2 (2x)
                           1st/3rd ending          2nd/4th ending
e(-----------------------(-----------------------)----------------)
B(-----------------------(-----------------------)----------------)
G(------11-12-11-9-------(----9-11-12-11-9-------)----------------)
D(---9=------------12-11-(-12--------------12-11-)-11=---12-/14---)
A(-------9-10--9-7-------(----7--9-10--9-7-------)----------------)
E(---7=------------10--9-(-10--------------10--9-)--9=---10-/12---)
P.M.                .  .    . .  .  .  . .  .  .


Theme 1
Main Riff (2x)

e(----------------------------------------------------------------------|
B(----------------------------------------------------------------------|
G(----------------------------------------------------------------------|
D(----------------------------------------------------------------------|
A(---9----------------9------7------9----9-55555555555555-9-5555-7-5555-|
E(-----77777777777777---7777---7777---77--------------------------------|
P.M.   ..............   ....   ....   ..   ..............   ....   ....

e(----------------------------------------------------------------------)
B(----------------------------------------------------------------------)
G(----------------------------------------------------------------------)
D(--------------------------------------------------------4-5-7-2-4-5---)
A(---9-55-7-00000000000000-7-0000-9-0000-10-00-9=--10-9=--5-7-9-4-5-7---)
E(----------------------------------------------------------------------)
P.M.   ..   ..............   ....   ....    ..


Verse 1
Riff 3 (4x)
                                            1st/3rd ending     2nd/4th end.
e(---------------------------------------(--------------------)------------)
B(---------------------------------------(--------------------)------------)
G(---------------------------------------(--------------------)------------)
D(---9--------9--------9--------9--------(--5=----------------)--5-/7-/9=--)
A(---9--------9--------9--------9--------(--5=---9-7-5-/4-5-7-)--5-/7-/9=--)
E(---7-777777-7-777777-7-777777-7-777777-(-/3=--10-9-7-/5-7-9-)-/3-/5-/7=--)
P.M.   ......   ......   ......   ......


Pre-Chorus 1
Riff 4 (2x)
                                         1st end.  2nd end.
e(-------------------------------------(---------)---------)
B(-------------------------------------(---------)---------)
G(-------------------------------------(---------)---------)
D(---5---------------------------------(--9===---)--7===---)
A(---5---------------------------------(--9===---)--7===---)
E(---3-33333333333333-3333333333333333-(-/7===---)-/5===---)
P.M.   .............. ................


Chorus 1
Riff 5

e(------------------------------------------------------------|
B(------------------------------------------------------------|
G(---7=-------------------------7=----------------------------|
D(---7=---7=---/9=---/5=---5=---7=---7=---7777-5555-4444------|
A(---5=---7=---/9=---/5=---5=---5=---7=---9999-7777-5555-7777-|
E(--------5=---/7=---/3=---3=--------5=------------------9999-|
P.M.                                      .... .... .... ....

e(------------------------------------------)
B(------------------------------------------)
G(---7=-------------------------7=----------)
D(---7=---7=---/9=---/5=---5=---7=---4=-4---)
A(---5=---7=---/9=---/5=---5=---5=---4=-4---)
E(--------5=---/7=---/3=---3=--------2=-2---)


Theme 2      - Main Riff (2x)
Verse 2      - Riff 3    (4x)
Pre-Chorus 2 - Riff 4    (2x)
Chorus 2     - Riff 5


e(-------------)
B(-------------)
G(---4=---4=---)
A(---2=---2=---)
E(-------------)


Interlude 1
Riff 6

e(-----------------------------5-7=-7-7=-7-7--9-/10--9=-10--9=---)
B(---3=---3-5-7-7=----7=-7-7-8-7-8=-8-8=-8-8-10-/12-10=-12-10=---)
G(---4=---4-6-7-7=-/9-7=-7-7-9-----------------------------------)
D(---------------------------------------------------------------)
A(---------------------------------------------------------------)
E(---------------------------------------------------------------)


Interlude 2
Riff 7 (2x)

e(--------------------------------------------------------|
B(------------------------1010----------------------88----|
G(---1111-7777-1111-99-77------77--99-6666-99-77-66----66-|
D(--------------------------------------------------------|
A(--------------------------------------------------------|
E(--------------------------------------------------------|
P.M.  . . ....  . . .. ..  . . ..  .. .... .. .. .. .. ..

e(--------------------------------------------------|
B(--------------------77----------------------55----|
G(---77-4444-77-66-44----44--55-2222-55-44-22----22-|
D(--------------------------------------------------|
A(--------------------------------------------------|
E(--------------------------------------------------|
P.M. .. .... .. .. .. .. ..  .. .... .. .. .. .. ..

e(-------------------------------------------------------------------)
B(--------------------------------------------55---------------------)
G(---44-0000-44-22-00-77-00--55-2222-55-44-22----22-/7=-7-9-11-/6=---)
D(-------------------------------------------------------------------)
A(-------------------------------------------------------------------)
E(-------------------------------------------------------------------)
P.M. .. .... .. .. .. .. ..  .. .... .. .. .. .. ..


Guitar 2 (2nd time only)
e(--------------------------------------------------------------|
B(--------------------------------------------------------------|
G(--------------------------1111--------------------------99----|
D(---1212-9999-1212-1111-99------99--1111-7777-1111-99-77----77-|
A(--------------------------------------------------------------|
E(--------------------------------------------------------------|
P.M.  . . ....  . .  . . ..  . . ..   . . ....  . . .. .. .. ..

e(--------------------------------------------------|
B(--------------------------------------------------|
G(--------------------77----------------------66----|
D(---99-5555-99-77-55----55--77-4444-77-55-44----44-|
A(--------------------------------------------------|
E(--------------------------------------------------|
P.M. .. .... .. .. .. .. ..  .. .... .. .. .. .. ..

e(--------------------------------------------------------------------)
B(--------------------------------------------------------------------)
G(--------------------44----------------------66----------------------)
D(---55-2222-55-44-22----22--77-4444-77-55-44----44--/9=-9-11-12-7=---)
A(--------------------------------------------------------------------)
E(--------------------------------------------------------------------)
P.M. .. .... .. .. .. .. ..  .. .... .. .. .. .. ..


Guitar Solo
Riff 8 (4x)
                                        1st/3rd end. 2nd/4th end.
e(-------------------------------------(------------)------------)
B(-------------------------------------(------------)------------)
G(-------------------------------------(------------)------------)
D(-------------------------------------(--5=---5=---)--4=---4=---)
A(-------------------------------------(--5=---5=---)--4=---4=---)
E(---7777777777777777-7777777777777777-(-/3=---3=---)-/2=---2=---)
P.M. ................ ................


Interlude 3
Riff 9

e(----------------------------------------------------------)
B(---3=-3-5-7-5=-5-7-8-7=-5-/3-----3=-3-----3=-5-7=-/8-7=---)
G(---4=-4-6-7-6=-6-7-9-7=-6-/4-4-6-4=-4-6-4-4=-6-7=-/9-7=---)
D(-----------------------------5-7------7-5-----------------)
A(----------------------------------------------------------)
E(----------------------------------------------------------)


Pre-Chorus 3 - Riff 4 (2x)
Chorus 3     - Riff 5 (2x)


Outro
Riff 10 (4x until fade out)

e(-----------------------------------------------------------------------)
B(-----------------------------------------------------------------------)
G(-----------------------------------------------------------------------)
D(-----------------------------------------------------------------------)
A(-----------------------------------------------------------------------)
E(---7777777777777777-7777777777777777-7777777777777777-7777777777777777-)
P.M. ................ ................ ................ ................


Symbol explanation:


P.M.  Palm Mute (notes marked with dot)
/     slide
=     sustained

Note: If you find any mistakes please send e-mail
Tap to rate this tab
 
# A B C D E F G H I J K L M N O P Q R S T U V W X Y Z