Steel Attack - Holy Swordsmen tab

Artist: Steel Attack
Title:  Holy Swordsmen
Album:  Fall Into Madness
Transcribed by Roger H. Beck (July 13, 2001)
e-mail address: roger_h_beck@hotmail.com

Standard tuning


Theme 1
Main Riff (2x)

e(-----------------------------------------------------|
B(-----------------------------------------------------|
G(----------9------9---7---9=--------9-----7---9----9=-|
D(----------9-----10---7---9=--------9-----7---9---10=-|
A(----------7------7---5---7=--------7-----5---7----7=-|
E(---0--0-0---0-0----0---0----0--0-0---0-0---0---0-----|
P.M. .  . .   . .    .   .    .  . .   . .   .   .

e(-------------------------------------------------------)
B(-------------------------------------------------------)
G(----------9------9---7---9=----------------------------)
D(----------9-----10---7---9=----------------9-7=-7-5=---)
A(----------7------7---5---7=---------------10-9=-9-7=---)
E(---0--0-0---0-0----0---0----0--0-0-0--0-0--------------)
P.M. .  . .   . .    .   .    .  . . .  . .


Main Riff addition

e(-----------------------------------)
B(-----------------------------------)
G(-----------------------------------)
D(---2===---2=---X/-5-5-/4-/5-5-/4---)
A(---2===---2=---X/-5-5-/4-/5-5-/4---)
E(---0===---0=------3-3-/2-/3-3-/2---)
P.M.                . .     . .


Verse 1
Riff 1 (2x)

e(--------------------------------)
B(--------------------------------)
G(--------------------------------)
D(---2===---5=-2===-----5=---7=---)
A(---2===---5=-2===-----5=---7=---)
E(---0===---3=-0===---0-3=-0-5=---)
P.M.                  .    .


Pre-Chorus 1
Riff 2

e(------------------------------------------------------|
B(------------------------------------------------------|
G(---2-----2-----2-----2-----5-----5------7-------------|
D(---2-----2-----2-----2-----5-----5------7-------------|
A(---0-0-0-0-0-0-0-0-0-0-0-0-3-3-3-3-3-3-/5-5-5-5-5-5-5-|
E(------------------------------------------------------|
P.M.   . .   . .   . .   . .   . .   . .    . . . . . .

e(----------------------------------------------)
B(----------------------------------------------)
G(---2-----2-----2-----2-----5--------------7---)
D(---2-----2-----2-----2-----5--------------7---)
A(---0-0-0-0-0-0-0-0-0-0-0-0-3-3-3-3-3-3-3-/5---)
E(----------------------------------------------)
P.M.   . .   . .   . .   . .   . . . . . .


Verse 2      - Riff 1 (2x)
Pre-Chorus 2 - Riff 2


Chorus 1
Riff 3 (4x)

e(-------------------------------------------|
B(-------------------------------------------|
G(-------------------------------------------|
D(-------------------------------------------|
A(-------------------------------------------|
E(---3-0000000-3-0000000-3-0000000-3-0000000-|
P.M.   .......   .......   .......   .......

                                              alt. end.
e(--------------------------------------)   e(----------)
B(--------------------------------------)   B(----------)
G(---------------------------------7=---)   G(---7--7---)
D(---------------------------------7=---)   D(---7--7---)
A(---------------------------------5=---)   A(---5--5---)
E(---3-0000000-3-0000000-3-0000000------)   E(----------)
P.M.   .......   .......   .......


Theme 2      - Main Riff (2x)
Verse 3      - Riff 1    (2x)
Pre-Chorus 3 - Riff 2
Chorus 2     - Riff 3    (4x; with alt. ending 4th time)


Guitar Solo 1
Riff 4 (4x)

e(----------------------------------------------------|
B(----------------------------------------------------|
G(----------------------------------------------------|
D(----------------------------------------------------|
A(---5-7-------------7-9-------------9-10-------------|
E(-------0-000-000-0-----0-000-000-0------0-000-000-0-|
P.M.     . ... ... .     . ... ... .      . ... ... .

    1st/3rd end.    2nd/4th end.
e(----------------)--------------)
B(----------------)--------------)
G(---------7--7---)---5-/4-/7=---)
D(---------7--7---)---5-/4-/7=---)
A(---5-7---5--5---)---3-/2-/5=---)
E(-------0--------)--------------)
P.M.     .


Interlude
Riff 5 (4x)

e(-----10------------10---------------------)
B(---8-12-10-12=---8-12-10-12-10-8108-/7=---)
G(---9----11-12=---9----11-12-11-9119-/7=---)
D(------------------------------------------)
A(------------------------------------------)
E(------------------------------------------)


Bridge
Riff 6

e(-------------------------------------------------------------------------|
B(-------------------------------------------------------------------------|
G(-------------------------------------------------------------------------|
D(-------------------------------------------------------------------------|
A(---7-----7-----7-----7-----7---7---10-----10-----10-----10-----10---10---|
E(-----0-0---0-0---0-0---0-0---0---0----0-0----0-0----0-0----0-0----0----0-|
P.M.   . .   . .   . .   . .   .   .    . .    . .    . .    . .    .    .

e(---------------------------------------------------------------------)
B(---------------------------------------------------------------------)
G(---------------------------------------------------------------------)
D(---9-----9-----9-----9-----9---9---9-----9-----9-----9-----9---9-----)
A(---------------------------------------------------------------------)
E(-----0-0---0-0---0-0---0-0---0---0---0-0---0-0---0-0---0-0---0---0---)
P.M.   . .   . .   . .   . .   .   .   . .   . .   . .   . .   .   .


Riff 7 (2x)

e(--------------------------------------------------------------------|
B(--------------------------------------------------------------------|
G(--------------------------------------------------------------------|
D(---2-----2-----2-----2-----2---2----5-----5-----5-----5-----5---5---|
A(---2-----2-----2-----2-----2---2----5-----5-----5-----5-----5---5---|
E(---0-0-0-0-0-0-0-0-0-0-0-0-0-0-0-0-/3-3-3-3-3-3-3-3-3-3-3-3-3-3-3-3-|
P.M.   . .   . .   . .   . .   .   .    . .   . .   . .   . .   .   .

e(-----------------------------------------------------------------------)
B(-----------------------------------------------------------------------)
G(---7-----7-----7-----7-----7---7---/5-----5-----/7-----7-----7---7-----)
D(---7-----7-----7-----7-----7---7---/5-----5-----/7-----7-----7---7-----)
A(---5-5-5-5-5-5-5-5-5-5-5-5-5-5-5-5-/3-3-3-3-3-3-/5-5-5-5-5-5-5-5-5-5---)
E(-----------------------------------------------------------------------)
P.M.   . .   . .   . .   . .   .   .    . .   . .    . .   . .   .   .


Guitar Solo 2
Riff 8 (2x)

e(-----------------------------------------------------------|
B(-----------------------------------------------------------|
G(---9--------------9----9---7---9--------------9----9---7---|
D(---9--------------9---10---7---9--------------9---10---7---|
A(---7--------------7----7---5---7--------------7----7---5---|
E(-----0-000-000-00---0----0---0---0-000-000-00---0----0---0-|
P.M.   . ... ... ..   .    .   .   . ... ... ..   .    .   .

                                   1st ending    2nd end.
e(-------------------------------(-------------)----------)
B(-------------------------------(-------------)----------)
G(---9--------------9----9---7---(-5=---4=-----)-5=---4---)
D(---9--------------9---10---7---(-5=---4=-----)-5=---4---)
A(---7--------------7----7---5---(-3=---2=-----)-3=---2---)
E(-----0-000-000-00---0----0---0-(----0----0---)----0-----)
P.M.   . ... ... ..   .    .   .      .    .        .


Chorus 3 - Riff 3 (6x)


e(-------)
B(-------)
G(-------)
D(---2---)
A(---2---)
E(---0---)


Symbol explanation:


P.M.  Palm Mute (notes marked with dot)
/     slide
=     sustained

Note: If you find any mistakes please send e-mail
Tap to rate this tab
 
# A B C D E F G H I J K L M N O P Q R S T U V W X Y Z