Steel Attack - Fall Into Madness tab

Artist: Steel Attack
Title:  Fall Into Madness
Album:  Fall Into Madness
Transcribed by Roger H. Beck (July 10, 2001)
e-mail address: roger_h_beck@hotmail.com

Standard tuning


Intro
Riff 1
                                           *
e(-------------------------------------------|
B(-------------------------------------------|
G(---7=------------3=--------555-333-222-----|
D(---7=---777-7=---3=---2=---777-555-333-555-|
A(---5=---888-8=---1=---3=---------------777-|
E(-------------------------------------------|
P.M.      ...                ... ... ... ...

e(----------------------------------------------)
B(----------------------------------------------)
G(---7=------------3=---------------------------)
D(---7=---777-7=---3=--------777-555-333-/222---)
A(---5=---888-8=---1=---4=---888-777-555-/444---)
E(----------------------5=----------------------)
P.M.      ...                ... ... ...  ...


Theme 1
Main Riff (3x)

e(---------------------------------------------------|
B(---------------------------------------------------|
G(---------------------------------------------------|
D(---00-77-88-00-55-77-00-33-55-00-22-33-00-22-33-55-|
A(---------------------------------------------------|
E(---------------------------------------------------|
P.M. .. .. .. .. .. .. .. .. .. .. .. .. .. .. .. ..

e(-------------------------------------------------)
B(-------------------------------------------------)
G(-------------------------------------------------)
D(---00-77-88-00-55-77-00-33-5555-3333-2222--------)
A(------------------------------------------3333---)
E(-------------------------------------------------)
P.M. .. .. .. .. .. .. .. .. .... .... .... ....

Guitar 2 (2nd and 3rd time only)
e(---------------------------------------------------------|
B(---------------------------------------------------------|
G(---------------------------------------------------------|
D(---00-1010-1212-00-88-1010-00-77-88-00-55-77-00-55-77-88-|
A(---------------------------------------------------------|
E(---------------------------------------------------------|
P.M. ..  . .  . . .. ..  . . .. .. .. .. .. .. .. .. .. ..

e(-------------------------------------------------------)
B(-------------------------------------------------------)
G(-------------------------------------------------------)
D(---00-1010-1212-00-88-1010-00-77-8888-7777-5555--------)
A(------------------------------------------------7777---)
E(-------------------------------------------------------)
P.M. ..  . .  . . .. ..  . . .. .. .... .... .... ....


Intro Reprise - Riff 1 until *


Verse 1
Riff 2 (2x)

e(----------------------------------------------------------------|
B(----------------------------------------------------------------|
G(---7-------------------------------3----------------------------|
D(---7----------------7----5----7----3------------77-55-3=-2-3-0=-|
A(---5-55555555555555-8-55-7-55-8-5-/1-1111111111-88-77-5=-3-5-1=-|
E(----------------------------------------------------------------|
P.M.   ..............   ..   ..   .    .......... .. ..

e(------5555---------------------------------)
B(-----------6666-88888888-5-3-1-------------)
G(---2=--------------------5-3-2-3-2-0-------)
D(---3=-7777-3333-55555555-------5-3-2-3-2---)
A(-------------------------------------5-3---)
E(-------------------------------------------)
P.M.    .... .... ........ . . . . . . . .


Pre-Chorus 1
Riff 3 (2x)
                                                1st ending
e(--------------------------------------------)---------------------|
B(--------------------------------------------)---------------------|
G(--------------------------------------------)---------------------|
D(--------3333-2222-5555-/7777-3333-5555-2222-)------3333-2222-5555-|
A(---1111-------------------------------------)-1111----------------|
E(--------------------------------------------)---------------------|
P.M. .... .... .... ....  .... .... .... ....   .... .... .... ....

                         2nd ending
e(-------------------)-----------------------------)
B(-------------------)-----------------------------)
G(--------------5=---)-------5-----5-----5-----5---)
D(---/7777-3333-5=---)-------5-----5-----5-----5---)
A(--------------3=---)---3-3-3-3-3-3-3-3-3-3-3-3---)
E(-------------------)-----------------------------)
P.M.  .... ....          . .   . .   . .   . .


Chorus 1
Riff 4 (2x)

e(--------------------------------------------------|
B(--------------------------------------------------|
G(--------------------------------------55-33-22----|
D(---77777777-33333333-5555555555555555-77-55-33-55-|
A(---88888888-55555555-7777777777777777----------77-|
E(--------------------------------------------------|
P.M. ........ ........ ................ .. .. .. ..

                                               1st ending    2nd end.
e(-------------------------------------------)--------------)--------)
B(-------------------------------------------)--------------)--------)
G(-------------------------------------3=----)-5=---5=-5=---)-5===---)
D(---5555555555555555-3333333333333333-3=-3=-)-5=---3=-5=---)-5===---)
A(---7777777777777777-5555555555555555-1=-3=-)-3=-----------)-3===---)
E(----------------------------------------1=-)--------------)--------)
P.M. ................ ................


Theme 2      - Main Riff (2x)
Verse 2      - Riff 2    (2x)
Pre-Chorus 2 - Riff 3    (2x)
Chorus 2     - Riff 4    (2x)


Bridge
Riff 5 (2x)

e(--------------------------------------------------------------------------)
B(--------------------------------------------------------------------------)
G(-------10---9---12-------10---9------------10---9---12---9-9-9-7-7-7-7-10-)
D(---0-0----0---0----0-0-0----0---0-10-0-0-0----0---0----0------------------)
A(--------------------------------------------------------------------------)
E(--------------------------------------------------------------------------)
P.M. . .    .   .    . . .    .   .    . . .    .   .    .   . .   . .

Guitar 2 (2nd time only)
e(-------------------------------------------------------------------------)
B(-------10---8---11-------10---8-----------10---8---11---8-8-8-6-6-6-6-10-)
G(----------------------------------9--------------------------------------)
D(---0-0----0---0----0-0-0----0---0---0-0-0----0---0----0------------------)
A(-------------------------------------------------------------------------)
E(-------------------------------------------------------------------------)
P.M. . .    .   .    . . .    .   .   . . .    .   .    .   . .   . .


Guitar Solo
Riff 6

e(---------------------------------------------------------------------|
B(---------------------------------------------------------------------|
G(----------------------------------------------------------------5=---|
D(----------------------------------------------------------------5=---|
A(---1111111111111111-1111111111111111-1111111111111111-11111111-/3=---|
E(---------------------------------------------------------------------|
P.M. ................ ................ ................ ........

e(----------------------------------------------------------------)
B(----------------------------------------------------------------)
G(------------------------------------------5-----5-----5-----5---)
D(------------------------------------------5-----5-----5-----5---)
A(---1111111111111111-1111111111111111-/3-3-3-3-3-3-3-3-3-3-3-3---)
E(----------------------------------------------------------------)
P.M. ................ ................  . .   . .   . .   . .


Interlude
Riff 7 (2x)

e(------------------------------------------------------------------------|
B(-1010101010101010-66666666-88888888-88888888-88888888-13131313-11111111-|
G(-1010101010101010-77777777-99999999-99999999-99999999-14141414-12121212-|
D(------------------------------------------------------------------------|
A(------------------------------------------------------------------------|
E(------------------------------------------------------------------------|

e(-----------------------------------------------------------------------------|
B(-1010101010101010-10101010-/8888-/66666666-1111111111111111-1010101010101010-|
G(-1010101010101010-10101010-/9999-/77777777-1212121212121212-1010101010101010-|
D(-----------------------------------------------------------------------------|
A(-----------------------------------------------------------------------------|
E(-----------------------------------------------------------------------------|

                1st ending                                       2nd ending
e(------------(-------------------------------------------------)----------)
B(-8888-/6666-(-88888888-6666-8888-1010101010101010-8888-6666---)---8===---)
G(-9999-/7777-(-99999999-7777-9999-1010101010101010-9999-7777---)---9===---)
D(------------(-------------------------------------------------)----------)
A(------------(-------------------------------------------------)----------)
E(------------(-------------------------------------------------)----------)


Verse 3
Riff 8 (2x)

e(------------------------------------------------------------|
B(------------------------------------------------------------|
G(---7--------------------3-----------------------------------|
D(---7-------------77-55--3-----------------------------------|
A(---5-555555-5555-88-77-/1-111111-11111111-11111111-11111111-|
E(------------------------------------------------------------|
P.M.   ...... .... .. ..    ...... ........ ........ ........

e(----------------------------------------------------------|
B(----------------------------------------------------------|
G(----5-----------------------------------2-----------------|
D(----5-----------------------------------2-----------------|
A(---/3-333333-33333333-33333333-33333333-0-000000-00000000-|
E(----------------------------------------------------------|
P.M.    ...... ........ ........ ........   ...... ........

                          1st ending         2nd ending
e(---------------------(--------------------)-----------)
B(---------------------(--------------------)-----------)
G(---3-----------------(--5-----------------)----5===---)
D(---3-----------------(--5-----------------)----5===---)
A(---1-111111-11111111-(-/3-333333-33333333-)---/3===---)
E(---------------------(--------------------)-----------)
P.M.   ...... ........      ...... ........


Chorus 3 - Riff 4 (2x)


e(-----------)
B(-----------)
G(---/7===---)
D(---/7===---)
A(---/5===---)
E(-----------)


Symbol explanation:


P.M.  Palm Mute (notes marked with dot)
/     slide
=     sustained

Note: If you find any mistakes please send e-mail
Tap to rate this tab
 
# A B C D E F G H I J K L M N O P Q R S T U V W X Y Z