Steel Attack - Clearing The Mind tab

Artist: Steel Attack
Title:  Clearing The Mind
Album:  Fall Into Madness
Transcribed by Roger H. Beck (July 14, 2001)
e-mail address: roger_h_beck@hotmail.com

Standard tuning


Theme
Main Riff (4x)

Guitar 1
e(-------------------------------------------------------------------|
B(-5-0-0-8-0-0-7-0-0-10-0-0-8-0-7-0-5-0-0-8-0-0-7-0-0-10-0-0-8-0-7-0-|
G(-------------------------------------------------------------------|
D(-------------------------------------------------------------------|
A(-------------------------------------------------------------------|
E(-------------------------------------------------------------------|

e(------------------------------------------------------------------)
B(-5-0-0-8-0-0-7-0-0-10-0-0-8-0-7-0-4-0-0-5-0-0-7-0-0-8-0-0-7-0-4-0-)
G(------------------------------------------------------------------)
D(------------------------------------------------------------------)
A(------------------------------------------------------------------)
E(------------------------------------------------------------------)

Guitar 2 (3rd and 4th time only)
e(---------------------------------------------------------------------------|
B(-8-0-0-12-0-0-10-0-0-13-0-0-12-0-10-0-8-0-0-12-0-0-10-0-0-13-0-0-12-0-10-0-|
G(---------------------------------------------------------------------------|
D(---------------------------------------------------------------------------|
A(---------------------------------------------------------------------------|
E(---------------------------------------------------------------------------|

e(-------------------------------------------------------------------------)
B(-8-0-0-12-0-0-10-0-0-13-0-0-12-0-10-0-7-0-0-8-0-0-10-0-0-12-0-0-10-0-7-0-)
G(-------------------------------------------------------------------------)
D(-------------------------------------------------------------------------)
A(-------------------------------------------------------------------------)
E(-------------------------------------------------------------------------)


Main Riff addition

e(------------------------------)
B(------------------------------)
G(--------------9-9-9-9-/7-/9---)
D(---2=---/4=---9-9-9-9-/7-/9---)
A(---3=---/5=---7-7-7-7-/5-/7---)
E(------------------------------)
P.M.            . . . .  .  .


Verse 1
Riff 1 (2x)

e(-------------------------------------------------------------|
B(-------------------------------------------------------------|
G(---9-----------------------7-/9------------------------------|
D(---9-----------------------7-/9--------------9-7-5=-10--9-7=-|
A(---7-----------------------5-/7-------------10-9-7=-12-10-9=-|
E(-----0-0-0-0-0-0-0-0-0-0-0------0-0-0-0-0-0------------------|
P.M.   . . . . . . . . . . .      . . . . . .  . .     .  .

e(----------------------------------------------------------------)
B(----------------------------------------------------------------)
G(---9-----------------------7----------4-5-7=----------5-7--9=---)
D(---9-----------------------7-/5-7--9=-5-7-9=-7--9-10=-7-9-10=---)
A(---7-----------------------5-/7-9-10=--------9-10-12=-----------)
E(-----0-0-0-0-0-0-0-0-0-0-0--------------------------------------)
P.M.   . . . . . . . . . . .    . .     . .    .  .


Pre-Chorus 1
Riff 2 (2x)

e(----------------------------------------------------------------|
B(----------------------------------------------------------------|
G(---4------------------------------5-----------------------------|
D(---4------------------------------5-----------------------------|
A(---2-2-2-2-2-2-2-2-2-2-2-2-2-2-2-/3-3-3-3-3-3-3-3-3-3-3-3-3-3-3-|
E(----------------------------------------------------------------|
P.M.   . . . . . . . . . . . . . .    . . . . . . . . . . . . . .

                                                    alt. ending
e(---------------------------------------------) e(--------------)
B(---------------------------------------------) B(--------------)
G(---7------------------------------5=---/7=---) G(----5=---/7---)
D(---7------------------------------5=---/7=---) D(----5=---/7---)
A(--/5-5-5-5-5-5-5-5-5-5-5-5-5-5-5-/3=---/5=---) A(---/3=---/5---)
E(---------------------------------------------) E(--------------)
P.M.   . . . . . . . . . . . . . .


Verse 2 - Riff 1 (2x)


Bridge
Riff 3

e(--------------------------------------------------------)
B(--------------------------------------------------------)
G(--------------------------------------------------------)
D(---5-------5-------5-------5-------/7-------7-------7---)
A(-----3-3-3---3-3-3---3-3-3---3-3-3----5-5-5---5-5-5-----)
E(--------------------------------------------------------)
P.M.   . . .   . . .   . . .   . . .    . . .   . . .


Chorus 1
Riff 4 (2x)
                                                      1st     2nd
e(--------------------------------------------------(-------)------)
B(--------------------------------------------------(-------)------)
G(------7---------------------5-7--9-5=---/7=---/4=-(-/5-/7-)-/5---)
D(---2=-7--------------5-7--9-7-9-10-5=---/7=---/4=-(-/5-/7-)-/5---)
A(---2=-5-5-5-5-5-5-5-/7-9-10--------3=---/5=---/2=-(-/3-/5-)-/3---)
E(---0=---------------------------------------------(-------)------)
P.M.      . . . . . .


Theme        - Main Riff (2x; Guitars 1+2)
Verse 3      - Riff 1    (2x)
Pre-Chorus 2 - Riff 2    (2x; with alt. ending 2nd time)
Chorus 2     - Riff 4    (2x)


Interlude
Riff 5 (2x) (Keyboard arranged for guitar)

e(---12----14----15----14----12----14----15----14----|
B(------12----12----12----12----12----12----12----12-|
G(---------------------------------------------------|
D(---------------------------------------------------|
A(---------------------------------------------------|
E(---------------------------------------------------|

e(---15----17----19----17----15----17----19----17----|
B(------15----15----15----15----15----15----15----15-|
G(---------------------------------------------------|
D(---------------------------------------------------|
A(---------------------------------------------------|
E(---------------------------------------------------|

e(---10----12----14----12----10----12----14----12----|
B(------10----10----10----10----10----10----10----10-|
G(---------------------------------------------------|
D(---------------------------------------------------|
A(---------------------------------------------------|
E(---------------------------------------------------|

e(---8---10---12---10---10----12----14----12------)
B(-----8----8----8----8----10----10----10----10---)
G(------------------------------------------------)
D(------------------------------------------------)
A(------------------------------------------------)
E(------------------------------------------------)


Guitar Solo
Riff 6 (2x)

e(------------------------------------------------------------------|
B(---------------------------------------12-8---8-12-8---8-12-8---8-|
G(---11-8---8-11-8---8-11-8---8-11-8---8------9--------9--------9---|
D(--------9--------9--------9--------9------------------------------|
A(------------------------------------------------------------------|
E(------------------------------------------------------------------|

e(------------------------------------------------------------|
B(---12-8---8-13-10----10-13-10----10-13-10----10-13-10----10-|
G(--------9---------11----------11----------11----------11----|
D(------------------------------------------------------------|
A(------------------------------------------------------------|
E(------------------------------------------------------------|

     1st ending                              2nd ending
e(---12-10-8----8-10-12-10-8---------------)-----------------------)
B(-----------12--------------12-10-8-------)-15=-13151312/10-12=---)
G(-----------------------------------11=---)-----------------------)
D(-----------------------------------------)-----------------------)
A(-----------------------------------------)-----------------------)
E(-----------------------------------------)-----------------------)


Pre-Chorus 3 - Riff 2 (2x; with alt. ending 2nd time)
Chorus 3     - Riff 4 (4x; with 1st ending 2nd time as well)


Symbol explanation:


P.M.  Palm Mute (notes marked with dot)
/     slide
=     sustained

Note: If you find any mistakes please send e-mail
Tap to rate this tab
 
# A B C D E F G H I J K L M N O P Q R S T U V W X Y Z